tablaturas, partituras y acordes para guitarra
Busca por banda/artista:
 
y/o título de la canción:
A B C D E F G H I J K L M N O P Q R S T U V W X Y Z 0 1 2 3 4 5 6 7 8 9 / Top 100 tabs
Categorías
Usuarios
usuario:
Darse de alta
password:
Artistas más visitados
Publicidad
TOP acordes y tablaturas de Pink Floyd


Estás en: Inicio > Letra P > Acordes y tablaturas de Pink Floyd > Another Brick in The wall
Another Brick in The wall
de Pink Floyd
Puntúa este acorde/tab:      
(0.6/5)
Reportar este acorde/tab
  Añadir a tus favoritos
  Imprimir
DANIEL PEREZ

Todos mis acordes van dedicados a 'Liz' Ke inspira kada dia de mi vida y me llena de alegria

Another brick in the wall parte 2
Letras
 
Dm(v)
We  don't   need   no   education,

Dm(v)
We  don't  need no thought control,

Dm(v)
No dark sarcasm in the classroom.

Dm(v)                          G  
Teacher leave them kids alone.

G                                      
Hey, Teacher!  Leave them kids alone.
 
F                        C                       Dm(v) 
All in all it's just an - other brick in the wall.


F                         C                       Dm(v)
All in all it's just an - other brick in the wall.

Toca 2 vecez



Fill #1:

Dm(x)     C(vii) Dm(x)        Dm(v)       Am       G     F
  /       /      /   //       /   /       / / /    /     /

Fill #2:

Dm(v)     Am       G    F
/   /     / / /    /    /

Solo:



|-------------------------10---------------------------------
|-13-p-10----10--------10----13b(15)--------------10-10-10---
|---------12----12b(14)---------------------------10-10-10---
|------------------------------------------------------------
|------------------------------------------------------------
|------------------------------------------------------------


|------------------------------------------------------------
|-13--b(15)-b(17)-rb(13)-------13-p-10----10-----------------
|--------------------------------------12--------------------
|------------------------------------------------------------
|------------------------------------------------------------
|------------------------------------------------------------


|------------------------------------------------------------
|------------------------------------------------------------
|-10--9 ---9---------12-------------------------------------
|--------12---10-/-12----12----------------------------------
|------------------------------------------------------------
|------------------------------------------------------------


|------------------------------------------------------------
|--10----------10--10------10--10------10--12--10------------
|--10----------10--10------10--10------10--12--10------------
|-----12--12-----------12----------12------------------------
|------------------------------------------------------------
|------------------------------------------------------------
                          
|-------13b(15)-13-13----------------------------------------
|-----x------------------13b(15)b(17)b(18)-rb(15)b(17)-------
|---x--------------------------------------------------------
|-x----------------------------------------------------------
|------------------------------------------------------------
|------------------------------------------------------------
                                                       cont..
|-------10---------------------------------------------------
|----10----13p10---------------------------------------------
|-12-------------12--b(14)rb(12)-p-10---12-p-10-------10-----
|-----------------------------------------------12-------12--
|------------------------------------------------------------
|------------------------------------------------------------


|------------------------------------------------------------
|-----------------5h6p5--------------------------6b(8)-------
|---------5--7---------7---7-p-5------5--5--7p5--------------
|----/7--------------------------7---------------------------
|------------------------------------------------------------
|------------------------------------------------------------


|-------------------------------------15b(17)-13-------------
|--13b(15)---13b(15)b(17)rb(13)------------------15----------
|------------------------------------------------------------
|------------------------------------------------------------
|------------------------------------------------------------
|------------------------------------------------------------

|-----13-----15b(17)rb(15)b(17)rb(15)b(17)rb(15)----15b(17)--
|-/15----15-------------------------------------15---------15
|------------------------------------------------------------
|------------------------------------------------------------
|------------------------------------------------------------
|------------------------------------------------------------

|--18b(20)--(20)---20b(22)---20-p-17---20-p-17---------------
|------------------------------------------------------------
|------------------------------------------------------------
|------------------------------------------------------------
|------------------------------------------------------------
|------------------------------------------------------------

|------------------------------------------------------------
|-------------------------------------------12--12---10------
|-10--10--10----------------------12--10----12--12---10------
|-------------12------------------12--10------------(10)-----
|----------------------10-10-10------------------------------
|------------------------------------------------------------







|------------------------------------------------------------
|--x--x--10--------------------------------------------------
|--x--x--10---x--x-------------------------------------------
|-------------------12---------------------------------------
|---------------------------------10---8---10---8------------
|---------------------------------------------------10-------


Telados:



 | Dm /  /  /  | /  /  /  C |   x8

 | G  /  /  /  | /  /  /  / | Dm /  /  /  | /  /  /  /| x2

 | C  /  /  /  | /  /  /  / |

 | Bb /  /  /  | /  /  /  / |

 | C  /  /  /  | /  /  /  / |

 | no chord    ||end of solo


Key:

 -15b(17)-  => (whole step).

 -(17)rb(15) =>release bend 

 -15-h-17- => hammer-on.

 -17-p-15- => pull-off.

 -17--15- , -15-/-17-  => slide 
|-1-1-1-1-1-1-1-1-|-1-1-1-1-1-1-1-1-|-1-1-1-1-1-1-1-1-|-3-3-3-3-3-3-3-3-|
|-3-3-3-3-3-3-3-3-|-3-3-3-3-3-3-3-3-|-3-3-3-3-3-3-3-3-|-4-4-4-4-4-4-4-4-|
|-2-2-2-2-2-2-2-2-|-3-3-3-3-3-3-3-3-|-4-4-4-4-4-4-4-4-|-5-5-5-5-5-5-5-5-|
|-----------------|-----------------|-----------------|-----------------|
|-----------------|-----------------|-----------------|-----------------|
|-----------------|-----------------|-----------------|-----------------|


|-5-5-5-5-5-5-5-5-|-6-6-6-6-6-6-6-6-|-7-7-7-7-7-7-7-7-|-8-8-8-8-8-8-8-8-|
|-6-6-6-6-6-6-6-6-|-6-6-6-6-6-6-6-6-|-6-6-6-6-6-6-6-6-|-8-8-8-8-8-8-8-8-|
|-7-7-7-7-7-7-7-7-|-7-7-7-7-7-7-7-7-|-7-7-7-7-7-7-7-7-|-9-9-9-9-9-9-9-9-|
|-----------------|-----------------|-----------------|-----------------|
|-----------------|-----------------|-----------------|-----------------|
|-----------------|-----------------|-----------------|-----------------|

Estos acordes son arpejeados:

repite 
|-----1-5---------|-----1-6---------|-----1-7---------|-----3-8---------|
|---3-----6-------|---3-----6-------|---3-----6-------|---4-----8-------|
|-2---------7-----|-3---------7-----|-4---------7-----|-5---------9-----|
|-------------0---|-------------0---|-------------0---|-------------0---|
|-----------------|-----------------|-----------------|-----------------|
|-----------------|-----------------|-----------------|-----------------|
                        Riff A(4x or 5)
|- ----------- ---- ---|-------------------|-------------------|
|- ----------- ---- ---|-------------------|-------------------|
|10-8-7-8-7--- -7-- ---|----2-------/7-----|----3-------/7-----|
|- ----------10---10-8-|0-0-----0-0--------|0-0-----0-0--------|
|- ----------- ---- ---|-------------------|-------------------|
|- ----------- ---- ---|-------------------|-------------------|

                         fin riff A  Riff A2
|-----------------|-----------------|-----------------|-----------------|
|-----------------|-----------------|-----------------|-----------------|
|-----4-------/7--|----5-------/7---|----7------2----|----7------3----|
|-0-0-----0-0-----|0-0-----0-0------|0-0-----0-0------|0-0-----0-0------|
|-----------------|-----------------|-----------------|-----------------|
|-----------------|-----------------|-----------------|-----------------|
                         fin riff A2 Riff B
|-----------------|-----------------|----------------|----------------|
|-----------------|-----------------|----------------|----------------|
|----7-------4---|----7---7-5------|----------------|----------------|
|0-0-----0-0------|0-0--------------|----7-----7-----|----8-----8---8-|
|-----------------|-----------------|--5-----5-----5-|--5-----5-------|
|-----------------|-----------------|5-----5-----5---|6-----6-----6---|

                      fin Riff B      fin2 Riff B       fin3 Riff B
|----------------|----------------|----- ------ -----|----- ------ -----|
|----------------|----------------|----- ------ -----|----- ------ -----|
|----------------|----------------|----- ------ -----|----- ------ -----|
|----9-----9---9-|----8-----8---8-|----10-----10---10|----11-----11---11|
|--5-----5-------|--5-----5-------|--7-- ---7-- -----|--8-- ---8-- -----|
|7-----7-----7---|6-----6-----6---|8---- -8---- -8---|9---- -9---- -9---|

Para dudas y comentarios 'daniel_perezc@hotmail.com'
		   
AcordesyTabs.com © 2008 Acordes y Tablaturas para guitarra. Tabs and Chords for guitar. Aviso Legal - Contacto
El uso de este sitio está sujeto a la aceptación de los términos y condiciones (27 usuarios online)