tablaturas, partituras y acordes para guitarra
Busca por banda/artista:
 
y/o título de la canción:
A B C D E F G H I J K L M N O P Q R S T U V W X Y Z 0 1 2 3 4 5 6 7 8 9 / Top 100 tabs
Categorías
Usuarios
usuario:
Darse de alta
password:
Artistas más visitados
Publicidad
TOP acordes y tablaturas de Marcos Witt


Estás en: Inicio > Letra M > Acordes y tablaturas de Marcos Witt > Porque Tú eres bueno.
Porque Tú eres bueno.
de Marcos Witt
Puntúa este acorde/tab:      
(0.5/5)
Reportar este acorde/tab
  Añadir a tus favoritos
  Imprimir
Gracias a mis Amigos y Hermanos en Cristo, Jorge y Jaime ('Jaimito' de cariño),
pude hacer realidad, el poder tocar esta hermosa canción con mi guitarra.
Que el Señor Todopoderoso los guarde y los acompañe siempre.
He aquí el tema, provecho con los dedos, jejeje, disfrútenla:
 
PORQUE TÚ ERES BUENO
 
Intro:
 
	    G'	  A'	G'	A'	      G'	    A'		  G'
	e|----------------2-------4-----------------2---------------4--------------
	B|--------5-------3-----------5---------3-------3-----5-------------3------
	G|--4-----6-----4-------6---6---------4-4-----4-----6---6---------4---4----
	D|--2-----4-----2-------4-------4-----2---2-------2-4-----4-------2-----2--
	A|-------------------------------------------------------------------------
	E|--3-----5-----3-------5-------------3-------------5----------------------
 
	    A7		  D9/A
	e|-----------0-------5--------5------------5--------5--------|
	B|---------2-------------5--------5------------5--------5----|
	G|-------0-------------7--------7------------7--------7------|
	D|-----2-------------------7--------7------------7--------7--|
	A|---0-------------5---------------------5-------------------|
	E|-------------------------------------5---------------------|
 
 
Estrofa 01 (en nota D):
 
Porque... bueno... 	     porque... siempre... 	...cordia es...
 
	   D9	        Am7/E D7       G*	     Gbm7
	e|--------0--------3--2---------------------------------------2----------------
	B|------3---3------1--1-------------3-----------2-----------2---2-----3-2h3h2--
	G|----2-------2-0--0--2---------------4---0-----2---------2-------2---------2--
	D|--0--------------2--0-----------4-----4-------2-------4----------------------
	A|--------------------------------------------4-------4-------------2----------
	E|------------------------------3-----------3-------2--------------------------
 
	 cada  mañana  despertar...     sé...Ti puedo  confiar   me sostienes por tu...
 
			    A		    Gbm		 Bm	 Bm7     A7sus4
	e|----------0---------------------------------------2-------------0----------
	B|--------------3-----2-2h3h5-2-----------2---------3-2h3-------------3------
	G|------0-----0-------2---------0---------2-2-------4-2h4-2---------0-----0--
	D|--4-------------0---2-----------------4---4-------4-2h4---4-----------2----
	A|----2-------------0-------------------------4---2-----------2--------------
	E|--------0-----------------------0-1-2---------5---------------0------------
 
	  gran fidelidad.
 
	    A	     D9/A
	e|------0-------5--------------|
	B|--2-----2---------5-----5----|
	G|--2-------------7-----7------|
	D|----2---------------7-----7--|
	A|--0---------5----------------|
	E|--------------------------5--|
 
 
Estrofa 02 (En nota D)
 
Porque... bueno... 	     porque justicia...	       ...eterna es...
 
	   D9	        Am7/E D7       G*	     Gbm7
	e|--------0--------3--2---------------------------------------2----------------
	B|------3---3------1--1-------------3-----------2-----------2---2-----3-2h3h2--
	G|----2-------2-0--0--2---------------4---0-----2---------2-------2---------2--
	D|--0--------------2--0-----------4-----4-------2-------4----------------------
	A|--------------------------------------------4-------4-------------2----------
	E|------------------------------3-----------3-------2--------------------------
 
	 en ella  me  deleitaré...     en verdad   caminaré...  por  senda de...
 
			    A		    Gbm		 Bm	Bm7     A7sus4
	e|----------0----------------------------------------------------0----------
	B|--------------3-----2-2h3h5-2-----------2----------2-3-------------3------
	G|------0-----0-------2---------0---------2-2--------2-4-2---------0-----0--
	D|--4-------------0---2-----------------4---4--------2-4---4-----------2----
	A|----2-------------0-------------------------4---2----------2--------------
	E|--------0-----------------------0-1-2---------5--------------0------------
 
	justicia guía...me.
 
	    A		D9
	e|---------0---------0--------|
	B|--2----2---2---------3---0--|
	G|--2---2----------2-----2----|
	D|----2----------0------------|
	A|--0-------------------------|
	E|----------------------------|
 
 
Luego la Estrofa 01 aumenta un Tono:
 
Estrofa 01 (en nota E):
 
	       Porque...   bueno... 	     porque siempre...	       tu miseri...
 
	   E13/B	   E9		   E7/B	     A9		B/A
	e|----------------------------0---------0---------0-------2---2-0----------
	B|--------0-----------------0---0---3-----3---0-------0---4-------4--------
	G|------2-----2---2-------1-------1-1-------1-2-----2-----4---------4------
	D|----2-----2---2-------4-----------0-0-------2-2---------4-4---------4----
	A|--2-----------------2-------------2---------0---------0---------------0--
	E|------------------0------------------------------------------------------
 
	...cordia es 	       cada mañana     despertar sé... Ti puedo   confiar
 
	  Abm			    Gbm		    B13 B7     Abm	      Dbm
	e|--------------4-----------------------2--------------------4-----------4------
	B|------4------4----4h5h4-------------2---2---4-----4--------4---4-------5-4h5--
	G|------4-----4---------4-----------2-------2-4---2------------4---------6-4h6--
	D|----6-----6-----4-------6-------4-------------4----------6-------------6-4h6--
	A|--------6---------------------4-------------2--------------------6---4--------
	E|--4-----------------------0-2-----------------------2-4------------7----------
 
	    me  sostienes por tu  gran fidelidad.		     Y cada mañana
 
		   Gbm		  B13 B7	  E	       Dbm/Ab	  Gbm
	e|--------------------2---------------------------0-------4------------------2------
	B|------------------2---2---4-----4-----------0-----0-----5-4h5------------2---2----
	G|----4-----------2-------2-4---2-----------1-------------6-4h6----------2-------2--
	D|--6---6-------4-------------4-------4/2-------2---------6-4h6--------4------------
	A|------------4-------------2-------2-----------------0--------------4--------------
	E|--------0-2-----------------------------0-------------4-------0--2----------------
 
  al despertar sé... Ti puedo... confiar...  me sostienes por tu   gran fideli...
 
	  B13 B7     Abm	    Dbm		    Gbm		   B13 B7
	e|-----------------4-----------4-----------------------2----------------
	B|--4-----4--------4---4-------5-4h5-----------------2---2---4-----4----
	G|--4---2------------4---------6-4h6---4-----------2-------2-4---2------
	D|----4----------6-------------6-4h6-6---6-------4-------------4--------
	A|--2--------------------6---4-----------------4-------------2-------2--
	E|----------2-4------------7---------------0-2--------------------------
 
	   dad...
 
	   E9
	e|-----------------------0------------|
	B|-----------0-----0---------0--------|
	G|---------1-----1---1-----1-----1----|
	D|-------4-----4-------4-------4------|
	A|-----2------------------------------|
	E|--0------------------------------0--|
 
 
================
Acordes: EADGBe
 
D9	 xx0230
D9/A	 557755
Dbm/Ab	 446654
Dbm	 x46654
D7	 xx0212
G'	 322432
G*	 304430
Gbm	 244222
Gbm7	 242222
A'	 544654
A	 x02220
A7	 x02020
A9	 x02200
A7sus4	 x02030
Am7/E	 xx2013
Abm	 466444
E	 022100
E13/B	 x22200
E9	 024100
E7/B	 x20130
B/A	 x04442
Bm	 x24432
Bm7	 x24232
B13	 x22442
B7	 x24242
 
================
 
Aquí les va el mismo tema, para mis Hermanos en Cristo
que son principiantes en la Guitarra:
 
PORQUE TÚ ERES BUENO
 
   Intro: D - A7
 
			 D   D7
	Porque Tú eres bueno,
		      G	    A7
	porque para siempre
		 Gbm	   Bm
	tu misericordia es,
	        G	      A7
	cada mañana al despertar
		  Gbm	       Bm
	sé que en Ti puedo confiar,
		G	      A7	D  A7
	me sostienes por tu gran fidelidad.
 
			 D   D7
	Porque Tú eres bueno,
		      G	   A7
	porque tu justicia,
		  Gbm	   Bm
	justicia eterna es,
	            G	      A7
	en ella yo me deleitaré,
		 Gbm	   Bm
	en tu verdad caminaré,
		G	    A7	      D B7
	por tu Senda de Justicia guíame.
 
			 E   E7
	Porque Tú eres bueno,
		      A	    B7
	porque para siempre
		 Abm	   Dbm
	tu misericordia es,
	        A	      B7
	cada mañana al despertar
		  Abm	       Dbm
	sé que en Ti puedo confiar,
		A	      B7	E  Dbm
	me sostienes por tu gran fidelidad.
	          A	        B7
	y cada mañana al despertar
		  Abm	       Dbm
	sé que en Ti puedo confiar,
		A	      B7	E
	me sostienes por tu gran fidelidad.
 
 
================
Acordes: EADGBe
 
D	 xx0232
D7	 xx0212
Dbm	 x46654
G	 320003
Gbm	 244222
A	 x02220
A7	 x02020
Abm	 466444
Bm	 x24432
B7	 x21202
E	 022100
E7	 022130		   
AcordesyTabs.com © 2008 Acordes y Tablaturas para guitarra. Tabs and Chords for guitar. Aviso Legal - Contacto
El uso de este sitio está sujeto a la aceptación de los términos y condiciones (33 usuarios online)