tablaturas, partituras y acordes para guitarra
Busca por banda/artista:
 
y/o título de la canción:
A B C D E F G H I J K L M N O P Q R S T U V W X Y Z 0 1 2 3 4 5 6 7 8 9 / Top 100 tabs
Categorías
Usuarios
usuario:
Darse de alta
password:
Artistas más visitados
Publicidad
TOP acordes y tablaturas de himnario adventista


Estás en: Inicio > Letra h > Acordes y tablaturas de himnario adventista > tan triste y tan lejos de Dios me senti
tan triste y tan lejos de Dios me senti
de himnario adventista
Puntúa este acorde/tab:      
(0.6/5)
Reportar este acorde/tab
  Añadir a tus favoritos
  Imprimir
e||--------------------------------
B||-8-8-8-8-6-4-4-1-4---4-4-4-4-6-8
G||3-----------------3-3-----------
D||--------------------------------
A||--------------------------------
E||--------------------------------

e||--------------------------------
B||-8-8-8-8-6-4-4-1-4---4-4-4-8-6-6-4----
G||3-----------------3-3--------------
D||--------------------------------
A||--------------------------------
E||--------------------------------

e||--------------------------------
B||4-9-9-9-9-9-9-8-8-8-8-8-6-4-4-4-4-6-8-6-
G||--------------------------------
D||--------------------------------
A||--------------------------------
E||--------------------------------

e||--------------------------------
B||-8-8-8-8-6-4-4-1-4---4-4-4-8-6-6-4----
G||3-----------------3-3--------------
D||--------------------------------
A||--------------------------------
E||--------------------------------

		   
AcordesyTabs.com © 2008 Acordes y Tablaturas para guitarra. Tabs and Chords for guitar. Aviso Legal - Contacto
El uso de este sitio está sujeto a la aceptación de los términos y condiciones (30 usuarios online)