tablaturas, partituras y acordes para guitarra
Busca por banda/artista:
 
y/o título de la canción:
A B C D E F G H I J K L M N O P Q R S T U V W X Y Z 0 1 2 3 4 5 6 7 8 9 / Top 100 tabs
Categorías
Usuarios
usuario:
Darse de alta
password:
Artistas más visitados
Publicidad
TOP acordes y tablaturas de hammeck


Estás en: Inicio > Letra h > Acordes y tablaturas de hammeck > tardes de ayer
tardes de ayer
de hammeck
Puntúa este acorde/tab:      
(0/5)
Reportar este acorde/tab
  Añadir a tus favoritos
  Imprimir
HAMMECK-TARDES DE AYER
----------------------

†---------------†
| /  slide up   |
|   slide down |
| h  hammer-on  |
| ~  vibrato    |
| .  palm mute  | 
†---------------†


Tuning: Standard  


INTRO
0:01

E|------------------------------------|
B|------------------------------------|
G|--4-4--4-4-4--8-8-8-9-8-------------|
D|--x-x--x-x-x--x-x-x-x-x-------------|x2
A|--2-2--2-2-2--6-6-6-7-6-------------|
D|------------------------------------|

E|------------------------------------------------------------|
B|------------------------------------------------------------|
G|--4-4--4-4-4--6-6-6--8-9--11-11--11-11-11--16-16-16-16-16---|
D|--x-x--x-x-x--x-x-x--x-x--x--x---x--x--x---x--x--x--x--x----|
A|--2-2--2-2-2--4-4-4--6-7--9--9---9--9--9---14-14-14-14-14---|
D|------------------------------------------------------------|

E|------------------------------------------------------------|
B|------------------------------------------------------------|
G|--4-4--4-4-4--8-8-8-9-8---4-4--4-4-4--6-6-6--8-9--11~-------|
D|--x-x--x-x-x--x-x-x-x-x---x-x--x-x-x--x-x-x--x-x--x~--------|
A|--2-2--2-2-2--6-6-6-7-6---2-2--2-2-2--4-4-4--6-7--9~--------|
D|------------------------------------------------------------|

verse
0:26

E|------------------------------------|
B|---12-12-12-12-12-12-12-12-12-12-12-|
G|---11-11-11-11-11-11-11-11-11-11-11-|
D|---9--9--9--9--9--9--9--9--9--9--9--|
A|------------------------------------|
D|------------------------------------|


0:46 

E|--------------------------------------------------------|
B|--------------------------------------------------------|
G|---9-8-4-3-4-4/6-4---------9-8-4-3-4-4/6-4---9-11~------|
D|-------------------4-6-8-------------------4------------|
A|--------------------------------------------------------|
D|--------------------------------------------------------|


CORO
1:02

E|-----------------------------------|
B|-----------------------------------|
G|--4-4-----4----4--3p4--------------|
D|--x-x----------------4-------------|(DURANTE TODO
A|--2-2--2----2----------------------|   EL CORO)
D|-----------------------------------|
           .     .  

VERSE
1:24

E|------------------------------------|
B|---12-12-12-12-12-12-12-12-12-12-12-|
G|---11-11-11-11-11-11-11-11-11-11-11-|
D|---9--9--9--9--9--9--9--9--9--9--9--|
A|------------------------------------|
D|------------------------------------|

1:33
 
E|------------------------------------|
B|------------------------------------|
G|-------8-8h9p8----------------------|
D|---9-9---------9--8-8-8-------------|x4
A|------------------------------------|
D|------------------------------------|
     . .            . . .           

E|------------------------------------|
B|------------------------------------|
G|------------------------------------|
D|----9-8-9-8h9p8---------------------|x3
A|-----------------9------------------|
D|------------------------------------|

E|------------------------------------------------------------------------------------|
B|-----------------------------------------------12-12-11-12-11h12p11-----------------|
G|-----9-8---------9-8-9-8h9p8----9-8-9-8h9p8------------------------11--11-11-11-11--|
D|---------9-9/11--------------9--------------9--------------------------9--9--9--9---|
A|------------------------------------------------------------------------------------|
D|------------------------------------------------------------------------------------|


CORO
1:57


E|-----------------------------------|
B|-----------------------------------|
G|--4-4-----4----4--3p4--------------|
D|--x-x----------------4-------------|(DURANTE TODO
A|--2-2--2----2----------------------|   EL CORO)
D|-----------------------------------|
           .     .  

INTERLUDE
2:20

E|-----------------------------------------------------|
B|--12-11----11--16-17-----14-17----17--14-16-12-------|
G|--------11------------16-------16--------------------|
D|-----------------------------------------------------|
A|-----------------------------------------------------|
D|-----------------------------------------------------|


E|--------------------------14-12-11----------------------|
B|--11-14-12--11-12----12-----------12--11-12----12-------|
G|-------------------11------------------------11---------|
D|--------------------------------------------------------|
A|--------------------------------------------------------|
D|--------------------------------------------------------|


E|-------------------------------------------------------------|
B|--17-16-12----11-12-----------17-16-14-17-16-12-17-16-17-----|
G|-----------11--------13-15-16--------------------------------|
D|-------------------------------------------------------------|
A|-------------------------------------------------------------|
D|-------------------------------------------------------------|


SOLO
2:59

E|---------------------------------------------------------|
B|---------------------------------------------------------|
G|-------11---11--11---11--9-9-9-9-8-8-8-8-6-6-6-8-9-8-9---|
D|---9-9----9--------9-------------------------------------|
A|---------------------------------------------------------|
D|---------------------------------------------------------|
     . .    .         

E|----------------------------------------------------------------------|
B|---------4h5p4------------------------------------12-11----12-12-12---|
G|-------4-------4--------6-4-3-4-3-4------11---11--------11-11-11-11---|
D|---4-4-----------4/64---------------8h9----9-------------------------|
A|----------------------------------------------------------------------|
D|----------------------------------------------------------------------|
     . .                                      .     

FINAL
3:13

E|----------------------------------------------------------------|
B|----------------------------------------------------------------|
G|---11-11-11-11-15-15-15-15-18-18-18-18--18-16-15-11-13--4~------|
D|---9--9--9--9--13-13-13-13-16-16-16-16--16-14-13-9--11--x~------|
A|--------------------------------------------------------2~------|
D|----------------------------------------------------------------|		   
AcordesyTabs.com © 2008 Acordes y Tablaturas para guitarra. Tabs and Chords for guitar. Aviso Legal - Contacto
El uso de este sitio está sujeto a la aceptación de los términos y condiciones (33 usuarios online)