tablaturas, partituras y acordes para guitarra
Busca por banda/artista:
 
y/o título de la canción:
A B C D E F G H I J K L M N O P Q R S T U V W X Y Z 0 1 2 3 4 5 6 7 8 9 / Top 100 tabs
Categorías
Usuarios
usuario:
Darse de alta
password:
Artistas más visitados
Publicidad
TOP acordes y tablaturas de Green day


Estás en: Inicio > Letra G > Acordes y tablaturas de Green day > Hitchin a ride
Hitchin a ride
de Green day
Puntúa este acorde/tab:      
(0.3/5)
Reportar este acorde/tab
  Añadir a tus favoritos
  Imprimir

Hitchin A R ide-Green Day-Nimrod
Tabbed By Vinnie

Main Riff

D|------------------------|		Intro x 2	
A|-9-9-7-7-6-6-5-5-5-| 	
E|-7-7-5-5-4-4-3-3-3-|		Verse

Verse 1:
Hey mister where you headed?
Are you in a hurry?
I need a lift to happy hour,
say oh no!
Do you break for distilled spirits?
I need a break as well
The well that inebriates the guilt,
1,2,1,2,3,4

(Repeat Main Riff 4 Times With Heavy Distortion)

Verse 2:
Cold turkeys gettin stale
Tonight I'm eating crow
Fermented salmonella
Poison oak, no!
There's a drought at the fountain of youth
Now I'm dehydrating
My tongue is swelling up, I say
1,2,1,2,3,4

(Repeat Main Riff 4 Times With Heavy Distortion)

Chorus:

D|-----------------------------------------------------------------
A|-4--4--4--4--6--6--6--6--9--9--7--7--6--6--5--5--5--5--
E|-2--2--2--2--4--4--4--4--7--7--5--5--4--4--3--3--3--3--
           Troubled times        You know I cannot lie

D|-------------------------------
A|--4--4--4--4--6--6--6--6--
E|--2--2--2--2--4--4--4--4--
          I'm off the wagon and I'm hitchin a ride

Bridge:(Same as verses)

There's a drought at the fountain of youth
Now I'm dehydrating
My tongue is swelling up I say....(guitar tacet)
SHIT!

Solo:

B|-------------------------------------------------------------------
G|-4-4-4-4-4-4-4-4-|-7-7-7-7-7-7-7-7-|-4-4-4-4-4-4-4-4-|
D|-------------------------------------------------------------------

B|----------------------|---------------------|------------------|
G|-----------------------|-4-4-4-4-4-4-4-4-|-7-7-7-7-7-7-7-7-9(Bend Up)
D|-5-5-5-5-4-4-4-4-|------------------------|----------------|

B|--------------------------------------------------------------------|
G|9--7----7--9--7----7--9--7----7--9--7----7-----7--9--7-----|
D|------9-----------9-----------9-----------9----9----------9------|

B|---------------|
G|7--9--7--9(Bend Up)|
D|---------------|

Chorus:

Troubled times, you know i cannot lie
I'm off the wagon and I'm hitchin a ride.

Outro:

D|------------------------|
A|-9-9-7-7-6-6-5-5-5-|		Play 8 Times
E|-7-7-5-5-4-4-3-3-3-|		On The Last Time Leave Out
			The 5-3 Chords

Billie Joe Talks Some Shit And Thats All There Is
There You Go

Any corrections e-mail juggalovinnie@woodstock.com

		   
AcordesyTabs.com © 2008 Acordes y Tablaturas para guitarra. Tabs and Chords for guitar. Aviso Legal - Contacto
El uso de este sitio está sujeto a la aceptación de los términos y condiciones (32 usuarios online)