tablaturas, partituras y acordes para guitarra
Busca por banda/artista:
 
y/o título de la canción:
A B C D E F G H I J K L M N O P Q R S T U V W X Y Z 0 1 2 3 4 5 6 7 8 9 / Top 100 tabs
Categorías
Usuarios
usuario:
Darse de alta
password:
Artistas más visitados
Publicidad
TOP acordes y tablaturas de Pepe Guerra


Estás en: Inicio > Letra P > Acordes y tablaturas de Pepe Guerra > Tatuaje del alma
Tatuaje del alma
de Pepe Guerra
Puntúa este acorde/tab:      
(0.4/5)
Reportar este acorde/tab
  Añadir a tus favoritos
  Imprimir

1||-------5-6--6-6-6-10-8-6-5--5-5-5-8-6-5--------------6-5--5-
2||-5-6-8-----8-8-8-----------6-6-6-------8-6-8-6-8-6-7-----6--
3||7-----------------------------------------------------------
4||------------------------------------------------------------
5||------------------------------------------------------------
6||------------------------------------------------------------


1||-------5-6--6-6-6-10-8-6-5--5-5-5-8-6-5--------------6-5--5-
2||-5-6-8-----8-8-8-----------6-6-6-------8-6-8-6-8-6-7-----6--
3||7-----------------------------------------------------------
4||------------------------------------------------------------
5||------------------------------------------------------------
6||------------------------------------------------------------


1||-------5-6-8-6---12-10---8-6-5------10----------------------
2||-5-6-8---------10--------------8-6--10----------------------
3||7-----------------------------------10----------------------
4||------------------------------------------------------------
5||------------------------------------------------------------
6||------------------------------------------------------------



REm
Después de mucho tiempo
                LA7
ayer la volví a ver
              REm
estaba tan linda
                     LA7
como un sueño imposible
                     REm
como una estrella lejana
                     LA7
así como el vuelo libre
                        REm
de una gaviota en la playa

DO7                            FA
yo que pensé que ya no me importaba
         LA7                     REm
yo que pensé que ya la había olvidado
         SOLm
yo que creí que ya estaba curado
                                REm
de aquella pasión que me atormentaba
          LA7               REm
y era mentira, que no la amaba
         SOLm
al ver sus ojos me perdí en su encanto
                                REm
sentí que mis fuerzas me abandonaban
          LA7            REm
y era mentira, yo me engañaba

DO7                            FA
no me atormentes mas que ya no puedo
         LA7                 REm
darte mas amor del que te he dado
           SOLm                    REm
si nuestro amor se quedó en el intento
            LA7                 REm
seguir insistiendo ya sería pecado

                             LA7
se que no voy a olvidarte corazón
                      REm
porque te llevo muy dentro
                      LA7
como un tatuaje del alma
                      REm
vives prendida a mi pecho


REm
Despué de tanto tiempo
                 LA7
ayer volvió a nacer
                     REm
en mi pecho la inquietud
                         LA7
volvió a encenderse el fuego
                REm
que yo creí apagado
                    LA7
volví a soñar despierto
                   REm
y a despertar asustado

DO7                            FA
porque en mi sueño apareció de nuevo
         LA7                 REm
su mirada profunda y transparente
          SOLm
como la leña que ahora pisa el fuego
                                      REm
que dentro de mi pecho vuelve y se enciende
         LA7             REm
y me consume muy lentamente

SOLm
perdí sus ojos, volví a ser herrante
                                  REm
que vaga tras la huella de lo imposible
         LA7             REm
marchate lejos, déjame libre

DO7                            FA
no me encadenes mas que ya no puedo
           LA7                REm
darte mas amor del que te he dado
           SOLm                    REm
si nuestro amor se quedó en el intento
            LA7               REm
seguir insistiendo ya sería pecado


                             LA7
se que no voy a olvidarte corazón
                         REm
aunque andes por otros rumbos
                     LA7
te llevo como un tatuaje
                    REm
en mi alma de vagabundo


                             LA7
se que no voy a olvidarte corazón
                      REm
porque te llevo muy dentro
                      LA7
como un tatuaje del alma
                      REm
vives prendida a mi pecho
		   
AcordesyTabs.com © 2008 Acordes y Tablaturas para guitarra. Tabs and Chords for guitar. Aviso Legal - Contacto
El uso de este sitio está sujeto a la aceptación de los términos y condiciones (15 usuarios online)