tablaturas, partituras y acordes para guitarra
Busca por banda/artista:
 
y/o título de la canción:
A B C D E F G H I J K L M N O P Q R S T U V W X Y Z 0 1 2 3 4 5 6 7 8 9 / Top 100 tabs
Categorías
Usuarios
usuario:
Darse de alta
password:
Artistas más visitados
Publicidad
TOP acordes y tablaturas de Pink Floyd


Estás en: Inicio > Letra P > Acordes y tablaturas de Pink Floyd > Time Breathe Reprise 2
Time Breathe Reprise 2
de Pink Floyd
Puntúa este acorde/tab:      
(0.2/5)
Reportar este acorde/tab
  Añadir a tus favoritos
  Imprimir

Pink Floyd - Time - Breathe reprise 6:00
tabbed by Jason Toop (toop420@aol.com)
should be right, greatest band of all time,
so here it is...

-0------------------------------------------------------------------------------
-0--------------0------------------------------10---------------12-------10-----
-0--------------0-------------------------------------0----------0--------0-----
-4------------------------2----------0--/11---------------11---/12-------11-----
-2------------------------0----------0------------------------------------------
-0-------0----------------------------------------------------------------------

-----0---------------------0----------------------------------------------------
-------0-------------------0--------0------------------------14—--14—--14—---14—
---------0----------------------------------------X------0----0----0----0----0--
-----------4------------------------------2-------X----/14---14---14---14---14--
-----------2---------2--------------------0------X------------------------------
--0--------0--------0-----------------------------------------------------------

-----0---------------7----------------------------------------------------------
-----0---------------8-----8----------0---------------------2-------------3-----
-----0-------X-------9-----9----------0-----------------2---2-------------2-----
-----2-------X-------9-----9-----2---------------2--------------------2---------
-----2-------X-------7-----7-----2---------------0--------------------0---------
-----0--------------------------------------------------------------------------

--------------------------------------------------------------------------------
------------------------------------------------------------------10---10---10--
---------------------------------------------------2---------------0----0----0--
-------------------0-------------------------------2--------/11---11---11---11--
-------------------2-------------------------0-----0----------------------------
------0--------x---0------------0---3b-------0----------------------------------

--------------------------------------0--------------------------10--10--10-----
--------------------------------------0--------------------------10--10--10-----
----0--------------------------------------------------------6-/-11--11--11-----
----4---------------------------2-------------2--------------------------------0
----2---------------------------2-------------0---------------------------------
----0---------------------------0-----------------------------------------------

--------------------------------------------------------------------------------
--------------------------------------------0-------------------------3---------
--------------------------------------------0-------------------------2---------
-------------------------------------2-----------------2--------------2---2-----
-------------------------------------2-----------------0------------------------
--0----------------------------------0------------------------------------------

Outro Chords
  Cmaj7BmFmaj7
e---0--------------------------------------------------0-------
b---0-----------------------3-------------------------1--------
g---0-----------------------4-------------------------2--------
d---2-----------------------4-------------------------3--------
a---3-----------------------2-------------------------3--------
e---0----------------------------------------------------------

    G7D7#9D7b9Bm
---3------------------------------------------------------------------
---3----------------6--------4------3-----------------------------------
---4----------------5--------5------4---------------------------------
---3----------------4--------4------4----------------------------------
---5----------------5--------5------2---------------------------------
---3-----------------------------------------------------------------
		   
AcordesyTabs.com © 2008 Acordes y Tablaturas para guitarra. Tabs and Chords for guitar. Aviso Legal - Contacto
El uso de este sitio está sujeto a la aceptación de los términos y condiciones (26 usuarios online)