tablaturas, partituras y acordes para guitarra
Busca por banda/artista:
 
y/o título de la canción:
A B C D E F G H I J K L M N O P Q R S T U V W X Y Z 0 1 2 3 4 5 6 7 8 9 / Top 100 tabs
Categorías
Usuarios
usuario:
Darse de alta
password:
Artistas más visitados
Publicidad
TOP acordes y tablaturas de Pod


Estás en: Inicio > Letra P > Acordes y tablaturas de Pod > Sleeping Awake
Sleeping Awake
de Pod
Puntúa este acorde/tab:      
(0.7/5)
Reportar este acorde/tab
  Añadir a tus favoritos
  Imprimir
Artist: P.O.D.
Song: Sleeping Awake
Instrument: Lead/Rythmn Guitar
Distortion: Medium-high except in bridge [low]

Tabbed by: Pseud0 on 15/04/03
Contact: pseud0lux@hotmail.com

COmments: At the time of tabbing this the single/album hadn't been released - I 
preview at www.thematrix.com - I'm guessing this could become 'The Matrix: Reloa
its still a good song! Make sure you buy the soundtrack 05/05/03! Note: I may ha

Tuning: Drop D

Key: 
   __     = Silence/Don't play

/  PM    = Palm mute

  --->    = Let ring


>>>Verse 1 and 2

E|----------------------------------------------------| 
B|----------------------------------------------------|  
G|----------------------------------------------------|  
D|--12--12--------12--12--------13--13--------3-----1-|
A|--12--12--------12--12--------13--13--------3-----1-|
D|--12--12--0-0-0-12--12--0-0-0-13--13--0-0-_-3-----1-|
v1          Reveal        to me    the myst...can you tell me what it means?
v2          Can you       see it?  th writi...can you tell me what it means?

E|----------------------------------------------------| 
B|----------------------------------------------------|  
G|----------------------------------------------------|  
D|--12--12--------12--12--------13--13--------3-----1-|
A|--12--12--------12--12--------13--13--------3-----1-|
D|--12--12--0-0-0-12--12--0-0-0-13--13--0-0-_-3-----1-| 
v1          Explain    these motions and me...unlock these secrets in me
v2          Translate     the symbols enigm...expressions keep questioning me

E|----------------------------------------------------| 
B|----------------------------------------------------|  
G|----------------------------------------------------|  
D|--12--12--------12--12--------13--13--------________| 
A|--12--12--------12--12--------13--13--------________|
D|--12--12--0-0-0-12--12--0-0-0-13--13--0-0-0-________|
v1          Describe the visions the meanin...will anybody listen?
v2          The message is written the mean...will anybody listen?

E|----------------------------------------------------| 
B|----------------------------------------------------|  
G|----------------------------------------------------|  
D|--12--12--------12--12--------13--13--------3-----1-|
A|--12--12--------12--12--------13--13--------3-----1-|
D|--12--12--0-0-0-12--12--0-0-0-13--13--0-0-_-3-----1-|
v1          Define      the riddles of my m...nothing is really what it seems
v2          Prophecy can still protect the... nothing is really what it seems


>>>Chorus

E|----------------------------------------------------| 
B|----------------------------------------------------|  
G|----------------------------------------------------|  
D|--0-------------10------------6-------------8-------|
A|--0-------------10------------6-------------8-------|
D|--0-------------10------------6-------------8-------|
      Dreaming of Zion...                     sleeping awake

E|----------------------------------------------------| 
B|----------------------------------------------------|  
G|----------------------------------------------------|  
D|--0-------------10------------6-------------8-------|
A|--0-------------10------------6-------------8-------|
D|--0-------------10------------6-------------8-------|
      Dreaming of Zion...                     can't stop sleeping awake

E|----------------------------------------------------| 
B|----------------------------------------------------|  
G|----------------------------------------------------|  
D|--14------------15------------8-------------10------|
A|--12------------15------------6-------------8-------|
D|--12------------15------------6-------------8-------|
    Do you see... Can you hear..Do you feel...can't stop sleeping awake

E|----------------------------------------------------| 
B|----------------------------------------------------|  
G|----------------------------------------------------|  
D|--14------------15------------8-------------10------|
A|--12------------15------------6-------------8-------|
D|--12------------15------------6-------------8-------|
    Do you see... Can you hear..Do you feel...can't stop sleeping


>>>Verse 2


>>>Chorus [Slightly different at the end as it leads into the bridge]

E|----------------------------------------------------| 
B|----------------------------------------------------|  
G|----------------------------------------------------|  
D|--0-------------10------------6-------------8-------|
A|--0-------------10------------6-------------8-------|
D|--0-------------10------------6-------------8-------|
      Dreaming of Zion...                     sleeping awake

E|----------------------------------------------------| 
B|----------------------------------------------------|  
G|----------------------------------------------------|  
D|--0-------------10------------6-------------8-------|
A|--0-------------10------------6-------------8-------|
D|--0-------------10------------6-------------8-------|
      Dreaming of Zion...                     can't stop sleeping awake

E|----------------------------------------------------| 
B|----------------------------------------------------|  
G|----------------------------------------------------|  
D|--14------------15------------8-------------10------|
A|--12------------15------------6-------------8-------|
D|--12------------15------------6-------------8-------|
    Do you see... Can you hear..Do you feel...can't stop sleeping awake

E|------------------------------------------------------------------| 
B|------------------------------------------------------------------|  
G|------------------------------------------------------------------|  
D|--14------------15------------8-------------10------------10------>
A|--12------------15------------6-------------8-------------8------->
D|--12------------15------------6-------------8-------------8------->
    Do you see... Can you hear..Do you feel...can't stop... awake

>>>Bridge

E|---------------------------------------------------------| 
B|---------------------------------------------------------|  
G|-------------------------------------6-------------------|  
D|----------14------------5-------------------------10-----|
A|------12----12-------3----3-------6----6-------8-----8---|
D|--12----------12--3---------3--6---------6--8----------8-|
       Do you see what I see        Can you hear what I hear...

E|---------------------------------------------------------| 
B|---------------------------------------------------------|  
G|-------------------------------------6-------------------|  
D|----------14------------5-------------------------10-----|
A|------12----12-------3----3-------6----6-------8-----8---|
D|--12----------12--3---------3--6---------6--8----------8-|
       Do you see w... Can you h... Do you fe...Can you dream like I dream

E|---------------------------------------------------------| 
B|----------1--------------------1------------1------------|  
G|--2----------------------------------1------------3------|  X2
D|------------------3--------------------------------------|
A|---------------------------------------------------------|
D|---------------------------------------------------------|
    Ahhh>>>>>>>>>>>>>>>>>>>>>>>>>>>>>>>>>>>>>>>>>>>>>

E|---------------------------------------------------------| 
B|--5---------6--8--5------------4------------8--------6---|  
G|---------------------------------------------------------|  X2
D|---------------------------------------------------------|
A|---------------------------------------------------------|
D|---------------------------------------------------------|
      Do you see w... Can you h... Do you fe...Do you dream like I dream
      Can anybody s...Can anybod...Can anybo...Can anybody...

>>>Chorus

>>>Outro

E|-----------------------------------------------------------------------| 
B|-----------------------------------------------------------------------|  
G|--/  PM   --------/  PM   --------/  PM   --------/  PM   ---------|  
D|--0-0--0--0-3-0-3--0-0--0--0-3-0-3--0-0--0--0-3-0-3--0-0--0--0-3-0-3-0-|
A|--0-0--0--0-3-0-3--0-0--0--0-3-0-3--0-0--0--0-3-0-3--0-0--0--0-3-0-3-0-|
D|--0-0--0--0-3-0-3--0-0--0--0-3-0-3--0-0--0--0-3-0-3--0-0--0--0-3-0-3-0-|
    
		   
AcordesyTabs.com © 2008 Acordes y Tablaturas para guitarra. Tabs and Chords for guitar. Aviso Legal - Contacto
El uso de este sitio está sujeto a la aceptación de los términos y condiciones (25 usuarios online)