tablaturas, partituras y acordes para guitarra
Busca por banda/artista:
 
y/o título de la canción:
A B C D E F G H I J K L M N O P Q R S T U V W X Y Z 0 1 2 3 4 5 6 7 8 9 / Top 100 tabs
Categorías
Usuarios
usuario:
Darse de alta
password:
Artistas más visitados
Publicidad
TOP acordes y tablaturas de Pod


Estás en: Inicio > Letra P > Acordes y tablaturas de Pod > Youth Of A Nation5
Youth Of A Nation5
de Pod
Puntúa este acorde/tab:      
(0.5/5)
Reportar este acorde/tab
  Añadir a tus favoritos
  Imprimir
turn your guitar two step down

this is the intro
------------------------------------------------------
------------------------------------------------------
--------------------1--1--1--1------------------------
--------------------------------------(3h)5p3p0-------
------------------------------------------------------
-0--0--0--0--0--3-------------------------------------


then play this

------------------------------------------------------
------------------------------------------------------
-3----1-1-1-1-1---------------------------------------
------------------------------------------------------
------------------------------------------------------
------------------------------------------------------

and this
------------------------------------------------------
-16-16-16-16-16-16-16--18-18-18-18-18--19-19-19-------
------------------------------------------------------
------------------------------------------------------
------------------------------------------------------
------------------------------------------------------

solo

------------------------------------------------------
-4--6--7--6--7--9-9--7--6--7--6--4--6--4--2-----------
------------------------------------------------------
------------------------------------------------------
------------------------------------------------------
------------------------------------------------------


any problem just write to kristofferjulemand@jubiimail.dk

		   
AcordesyTabs.com © 2008 Acordes y Tablaturas para guitarra. Tabs and Chords for guitar. Aviso Legal - Contacto
El uso de este sitio está sujeto a la aceptación de los términos y condiciones (26 usuarios online)