tablaturas, partituras y acordes para guitarra
Busca por banda/artista:
 
y/o título de la canción:
A B C D E F G H I J K L M N O P Q R S T U V W X Y Z 0 1 2 3 4 5 6 7 8 9 / Top 100 tabs
Categorías
Usuarios
usuario:
Darse de alta
password:
Artistas más visitados
Publicidad
TOP acordes y tablaturas de Beatles


Get Back
de Beatles
Puntúa este acorde/tab:      
(0.3/5)
Reportar este acorde/tab
  Añadir a tus favoritos
  Imprimir
get back

chords
A      G/A    D/A    D      G  
0      3      2      2      3
2      0      3      3      0
2      0      2      2      0
2      0      0      0      0
0      0      0      #      2
#      #      #      #      3


intro
A                      G/A  D/A    

verses

blues riff 2nd guitar
A                D
--------------- -------------------
--------------- -------------------
--------------- -------------------
--------------- -------------------
-7-x-9-x-7-x-9- -12-x-14-x-12-x-14-
-5-x-5-x-5-x-5- -10-x-10-x-10-x-10-

A
(1)jo jo was a man who thought he was a loner but  
(2)sweet ;oretta martin thought she was a woman but

                       Riff 1
D                      A
he new it couldnt last ---------------12-------------
she was another man    ------10-12b14----14r12-10----
                       -9s11----------------------11-
                       ------------------------------
                       ------------------------------
                       ------------------------------

jo jo left his home in tucson arizona bought 
all the girls around her say she got it coming but

                          riff 1
D                         A
some california grass
she gets it while she can

chorus

riff 2                  riff 3
A                       D       
-------------9-9-9-9-9- -------------8-8-8-8-8-
-------------8-8-8-8-8- -------------7-7-7-7-7-
-------------9-9-9-9-9- -------------7-7-7-7-7-
-----------7----------- -----------7-----------
-------7-9------------- -------7-9-------------
---7s9----------------- ---7s9-----------------

        riff 2
        A
get back    get back     get back

riff 3
D                         A      G/A  D/A
to were you once belonged             

        A           
get back    get back     get back

D                         A      
to were you once belonged        get back jo jo(loretta)

A                                          D              A   G D
-------------------------12-----------------------------------
----10-10-10-10-12-12b14----14r12-10----10--------------------
-11----------------------------------11----------7--5---5-5b6-
---------------------------------------------7-9------7-------
-------------------------------------------9------------------
--------------------------------------------------------------

A                                          D              
-------------------------12-------------------------------
----10-10-10-10-12-12b14----14r12-10----10----------------
-11----------------------------------11----------7--5---5-
---------------------------------------------7-9------7---
-------------------------------------------9--------------
----------------------------------------------------------

A      G D
-------------------------
---7b8-5-----7b8-5---5---
-5---------5-------7-----
---------7---------------
-------------------------
-----------------------0-      

AcordesyTabs.com © 2008 Acordes y Tablaturas para guitarra. Tabs and Chords for guitar. Aviso Legal - Contacto
El uso de este sitio está sujeto a la aceptación de los términos y condiciones (80 usuarios online)