tablaturas, partituras y acordes para guitarra
Busca por banda/artista:
 
y/o título de la canción:
A B C D E F G H I J K L M N O P Q R S T U V W X Y Z 0 1 2 3 4 5 6 7 8 9 / Top 100 tabs
Categorías
Usuarios
usuario:
Darse de alta
password:
Artistas más visitados
Publicidad
TOP acordes y tablaturas de Beatles


Get Back
de Beatles
Puntúa este acorde/tab:      
(0.4/5)
Reportar este acorde/tab
  Añadir a tus favoritos
  Imprimir
A5
JoJo was a man who thought he was a loner
D
But he knew he couldn't last
A5
Jo Jo left his home in Tucson, Arizona
D
For some California grass

Chorus:
A5        A7         D7                              A5
Get back, get back, get back to where you once belonged
A5        A7         D7                              A5
Get back, get back, get back to where you once belonged

Solo:

-|--------------------------------12------------------------------
-|-------10--10--10--12--12b(14)------b(14)12--10-----------------
-|--/11--------------------------------------------11-------------
-|----------------------------------------------------------------
-|----------------------------------------------------------------
-|----------------------------------------------------------------


-|---------------------------------------------------------------
-|---------------------------------------------------------------
-|-----------7---------------------------------------------------
-|-----7--9-----10--7--10b(11)-----------------------------------
-|--9------------------------------------------------------------
-|---------------------------------------------------------------
                       
-|--------------------------------12------------------------------
-|-------10--10--10--12--12b(14)------b(14)12--10------10---------
-|--/11--------------------------------------------11-------------
-|----------------------------------------------------------------
-|----------------------------------------------------------------
-|----------------------------------------------------------------

 
-|----------------------------------------------------------------
-|--------------------------8--5----------------------------------
-|------------7----------------------5--7b(9)--5-----5------------
-|-----7--10-----10--7--10--------7---------------7---------------
-|--9-------------------------------------------------------------
-|----------------------------------------------------------------

Verse: 
A5
Sweet Lorreta Martin thought she was a woman
D
But she was another man
A5
All the girls around her said she's got it coming
D
But she gets it while she can

Chorus:
Chorus:
A5        A7         D7                              A5
Get back, get back, get back to where you once belonged
A5        A7         D7                              A5
Get back, get back, get back to where you once belonged
		   
AcordesyTabs.com © 2008 Acordes y Tablaturas para guitarra. Tabs and Chords for guitar. Aviso Legal - Contacto
El uso de este sitio está sujeto a la aceptación de los términos y condiciones (54 usuarios online)