tablaturas, partituras y acordes para guitarra
Busca por banda/artista:
 
y/o título de la canción:
A B C D E F G H I J K L M N O P Q R S T U V W X Y Z 0 1 2 3 4 5 6 7 8 9 / Top 100 tabs
Categorías
Usuarios
usuario:
Darse de alta
password:
Artistas más visitados
Publicidad
TOP acordes y tablaturas de Primus


Estás en: Inicio > Letra P > Acordes y tablaturas de Primus > Harold Of The Rocks
Harold Of The Rocks
de Primus
Puntúa este acorde/tab:      
(0.3/5)
Reportar este acorde/tab
  Añadir a tus favoritos
  Imprimir
Harold Of The Rocks
Primus
Frizzle Fry

e-------------------------------------------------------------------------------
b-------------------------------------------------------------------------------
g-------------------------------------------------------------------------------
d----------2----------------------------2---------------------------2-----------
a----------2-----------5----7---------2----------5----7----------2-------5----7-
E---------0----------------------------0---------------------------0------------

e-------------------------------------------------------------------------------
b-------------------------------------------------------------------------------
g-------------------------------------------------------------------------------
d--------2-----------------------------2----------------------------2-----------
a--------2-----------------------------2----------------------------2-----------
E-------0-----------5------7---------0-----------5----7---------0--------5-----7

"Only if we can bring a friend, his name is Harold."

FIRST CHORUS
e-------------------------------------------------------------------------------
b-------------------------------------------------------------------------------
g-------------------------------------------------------------------------------
d--------2---------9---8---7-------2---------9---8---7--------2--------9---8---7
a--------2---------7---6---5-------2---------7---6---5--------2--------7---6---5
E-------0----------------------------0----------------------------0-------------

"This guy's pretty bizzare, Gus."

SECOND CHORUS
e-------------------------------------------------------------------------------
b-------------------------------------------------------------------------------
g-------------------------------------------------------------------------------
d-----2--------9---8---7------2-------9---8---7-----2----7---8---7------2-----7-
a-----2--------7---6---5------2-------7---6---5-----2----9---6---5------2-----9-
E----0--------------------------0-----------------------0---------------------0-

e-------------------------------------------------------------------------------
b----------15------16bend^release-----------------------------------------------
g----------------------------------------15---------------8~~ 9~~7~~~/------8~~9
d-------------------------------------------------------------------------------
a-------------------------------------------------------------------------------
E-------------------------------------------------------------------------------

e-------------------------------------------------------------------------------
b-------------------------------------------------------------------------------
g-------------------------------------------------------------------------------
d----------------7-7-7-7-7-7-7-7-7-7-7----9---------------------------7-7-7-7-7-
a---------------------------------------------------------------------7-7-7-7-7-
E---------------5-5-5-5-5-5-5-5-5-5-5----7---------------------------5-5-5-5-5-5

The part in between the last part and the solo I'm not sure about.

e-------------------------------------------------------------------------------
b-------------------------------------------------------------------------------
g-------------------------------------------------------------------------------
d-----7----7-5----5-3----3-2----2-----------------------------------------------
a-----5----5-3----3-1----1-0----0-5----5-4----4-3-----3--2-2-2-2---------7--6--5
E---------------------------------------3----3-2----2-1----1--0-0-0-0-----------

"Saw Harold at a party " and back to the chorus.  And then it goes to
"So in the end Swamper and Greeny finally come to the ways of Harold
and in doing so each gave just a little bit of his soul away. What a
couple of dumbshits."

e---------------------------------------7---------------------------------------
g---------------------------------------7---------------------------------------
b---------------------------------------7---------------------------------------
d-----9-8-7-6-5-4-3-2-------------7---------------------------------------------
a-----7-6-5-4-3-2-1-0--3-/-//----7----------------------------------------------
E---------------------------1-/-//----5-----------------------------------------

OUTRO "What a couple of dumbshits."

e-------------------------------------------------------------------[d]---------
b-------------------------------------------------------------------[r]---------
g-------------------------------------------------------------------[u]-------8-
d----2-------9--8--7----2-----9--8--7-----2-----9--8--7--5-[m]9-9-6-6-7-7-8-----
a----2-------7--6--5----2-----7--6--5-----2-----7--6--5--3-[s]7-7---------------
E---0--------------------0--------------------0-------------------[!]-----------

Itlof
		   
AcordesyTabs.com © 2008 Acordes y Tablaturas para guitarra. Tabs and Chords for guitar. Aviso Legal - Contacto
El uso de este sitio está sujeto a la aceptación de los términos y condiciones (14 usuarios online)