tablaturas, partituras y acordes para guitarra
Busca por banda/artista:
 
y/o título de la canción:
A B C D E F G H I J K L M N O P Q R S T U V W X Y Z 0 1 2 3 4 5 6 7 8 9 / Top 100 tabs
Categorías
Usuarios
usuario:
Darse de alta
password:
Artistas más visitados
Publicidad
TOP acordes y tablaturas de Beatles


Estás en: Inicio > Letra B > Acordes y tablaturas de Beatles > Golden Slumbers
Golden Slumbers
de Beatles
Puntúa este acorde/tab:      
(0.3/5)
Reportar este acorde/tab
  Añadir a tus favoritos
  Imprimir
#----------------------------------PLEASE NOTE---------------------------------#
#This file is the author's own work and represents their interpretation of the #
#song. You may only use this file for private study, scholarship, or research. #
#------------------------------------------------------------------------------#
#


From lrw@virginia.edu Fri May 16 08:17:51 1997
Date: Fri, 09 May 1997 19:51:25 -0400
From: "Laurence R. Watson" 
To: guitar@olga.net
Subject: TAB:  Golden Slumbers

FROM: Stuart Watson

This is a nice guitar arrangement for "Golden Slumbers"
This song was on their 1969 album "Abbey Road.


CHORUS:

  
  Am7         Dm
|--3----3----3----3----|--3----3----3----3----|--1----1----1----1----|--1----1--
|--1----1----1----1----|--1----1----1----1----|--3----3----3----3----|--3----3--
|----2----2----2----2--|----2----2----2----2--|----2----2----2----2--|----2----2
|----------------------|----------------------|----------------------|----------
|----------------------|----------------------|--0-------------------|----------
|----------------------|----------------------|----------------------|----------


                         G7        C         E7
|--5----5----3----1----|--1----1----1----1----|--1----1----1----1----|--3----3--
|--6----6----5----3----|--0----0----0----0----|--0----0----0----0----|--5----5--
|----2----2----2----2--|----0----0----0----0--|----0----0----0----0--|----0----0
|--0-------------------|----------------------|----------------------|----------
|----------------------|----------------------|----------------------|--3-------
|----------------------|----------------------|--3-------------------|----------


  Am DmG7       C
|--5----5--------------|--0----0----0----0----|--1----1----1---------|----------
|--5----5--------------|--3----3----3----3----|--0----1----3----0----|--1----1--
|----5----5------------|----2----2----2----2--|----0----0----0--0----|----0----0
|----------------------|--0-------------------|-------------------3--|--2----2--
|--0-------------------|----------------------|-------0----2---------|--3-------
|----------------------|----------------------|--3--------------3----|----------


VERSE (Strum As You Like):


  C                      Fmaj7           F       C                     
|--0-------------------|--0---------------1----|--0-------------------|
|--1-------------------|--1---------------1----|--1-------------------|
|--0-------------------|--2---------------2----|--0-------------------|
|--2-------------------|--3---------------3----|--2-------------------|
|--3-------------------|--3---------------3----|--3-------------------|
|----------------------|-----------------------|----------------------|


  C  Fmaj7           F
|--0-------------------|--0---------------1----|Then go back to the
place in the
|--1-------------------|--1---------------1----|      verse where the
chord changes to "C" 
|--0-------------------|--2---------------2----|
|--2-------------------|--3---------------3----|
|--3-------------------|--3---------------3----|                   
|----------------------|-----------------------|
		   
AcordesyTabs.com © 2008 Acordes y Tablaturas para guitarra. Tabs and Chords for guitar. Aviso Legal - Contacto
El uso de este sitio está sujeto a la aceptación de los términos y condiciones (98 usuarios online)