tablaturas, partituras y acordes para guitarra
Busca por banda/artista:
 
y/o título de la canción:
A B C D E F G H I J K L M N O P Q R S T U V W X Y Z 0 1 2 3 4 5 6 7 8 9 / Top 100 tabs
Categorías
Usuarios
usuario:
Darse de alta
password:
Artistas más visitados
Publicidad
TOP acordes y tablaturas de Misc television


Pink panther
de Misc television
Puntúa este acorde/tab:      
(0.3/5)
Reportar este acorde/tab
  Añadir a tus favoritos
  Imprimir

Pink Panther Theme
Music by Henry Mancini

Tabbed by Ben Walden (kenober80@hotmail.com)
If you have and comments or suggestions, please email me!

Intro

e----------------------------------------------------------
b----------------------------------------------------------
g----------------------------------------------------------
d----------------------------------------------------------
a-4/5-6/7-------4/5-6/7-------4/5-6/7-------76-53---3----
E---------7-0-----------7-0-----------7-0-----------3------

e----------------------------------------------------------
b----------------------------------------------------------
g----------------------------------------------------------
d----------------------------------------------------------
a-4/5-6/7-------5/6-7/8-------4/5-6/7-------76-53---3----
E---------7-0-----------8-1-----------7-0-----------3------

e----------------------------------------------------------
b----------------------------------------------------------
g----------------------------------------------------------
d----------------------------------------------------------
a-4/5-6/7-----7--------------------------------------------
E---------------7-3-2b3-2-0--------------------------------


1st Saxophone Solo (tabbed for guitar)

e----------------------------------------------------------
b----------------------------------------------------------
g-------------------5-4------------------------------------
d-----4-5-------4-5------0h5-7b8b7---5---------------------
a-5-7-------5-7-------------------------7-5-7-------------
E----------------------------------------------------------

e----------------------------------------------------------
b---------------------------5------------------------------
g-------------------5-4-0h4---7b8-------------------5-4----
d-----4-5-------4-5---------------------4-5-----4-5--------
a-5-7-------5-7---------------------5-7-----5-7------------
E----------------------------------------------------------

e----------------------------------------------------------
b--------------------------5-------------------------------
g----------------------------7-4---------------------------
d-0h5-7b8b7--5-------------------7-5---7b8b7b8b7b8b7b8b7---
a--------------7-5-7----------------7---------------------
E----------------------------------------------------------



e----------------------------------------------------------
b----------------------------------------------------------
g----------------------------------------------------------
d-5--------------------------------------------------------
a---7-5-7-7-----------------------------------------------
E----------------------------------------------------------


2nd Solo (I improvised a bit here and there on this one)

e-(1:18)--------------------------------------------------
b----------------------------------------------------------
g----------------------------------------------------------
d---7---7-5-5---5---5-5-7----------------------------------
a-7---7-------7----------------12/1512-12b13b12b13--/10-
E-------------------------5b6------------------------------

e----------------------------------------------------------
b----------------------------------------------------------
g---7h9-9p7-9-9-7-9b10b9p7---9p7---7b8b7-------------------
d-9------------------------9-----9-------9p75/7-----------
a------------------------------------------------10p7-8h9--
E----------------------------------------------------------

e----------------------------------------------------------
b----------------------------------------------------------
g-------------9/10910-7----------------------------------
d-------------------------9—10b11----------------------12--
a-5h7-8p5--7-------------------------------------12b14-----
E---------------------------------12-12-14b15b14-----------

e----------------------------------------------------------
b----------------------------------------------------------
g-------12-14b15-12----------------------------------------
d----14-------------14-12-14-------------------------------
a-14-------------------------14-12-14-1210h12p10----------
E------------------------------------------------12p10h12

e----------------------------------------------------------
b--------5-------------------------------------------------
g----------------------------------------------------------
d----7b8—--7b8b7---7b8b7-5h7p5-----------------------------
a-7--------------7-------------7-5b6b5-7-7-----------------
E-7----------------------------------------7-5b6b5-3-0-----

e----------------------------------------------------------
b--------------------------------5-------------------------
g----------------------------------7-4---------------------
d-4b5b4----------[first solo]----------7-5---7b8b7b8b7b8b7 
a-------7-5--------------------------------7---------------
E-----------7----------------------------------------------

e----------------------------------------------------------
b-----------------------------------------12--------------
g-----------------------------------------11--------------
d-b8b7-5----------5----------5------------11--------------
a--------7-5-7-7---7-5-7-7---7-5-7-7---10--------------
E----------------------------------------------------------



		   
AcordesyTabs.com © 2008 Acordes y Tablaturas para guitarra. Tabs and Chords for guitar. Aviso Legal - Contacto
El uso de este sitio está sujeto a la aceptación de los términos y condiciones (21 usuarios online)