tablaturas, partituras y acordes para guitarra
Busca por banda/artista:
 
y/o título de la canción:
A B C D E F G H I J K L M N O P Q R S T U V W X Y Z 0 1 2 3 4 5 6 7 8 9 / Top 100 tabs
Categorías
Usuarios
usuario:
Darse de alta
password:
Artistas más visitados
Publicidad
TOP acordes y tablaturas de Beatles


Estás en: Inicio > Letra B > Acordes y tablaturas de Beatles > Golden Slumbers
Golden Slumbers
de Beatles
Puntúa este acorde/tab:      
(0.4/5)
Reportar este acorde/tab
  Añadir a tus favoritos
  Imprimir
Golden Slumbers - Beatles

Intro:

|-----------|
|-----------|
|--0---0----|  x2
|-----------|
|--3---3----|
|----5---5--|

verse:

|-----------|      |---------------------------------------|
|-----------|      |---------------------------------------|
|--0---0----|      |---------------------------------------|
|-----------| x4   |--3---3----5---5----7---7----5----3----|     
|--3---3----|   |--5---5----7---7----8---8----7----5----|
|----5---5--|      |----5---5----5---5----5---5----5----5--|

|-----------|   |----------------------------------------------|
|-----------|   |----------------------------------------------|
|-----------|   |--0---0----1---1------------------------------|
|--3---3----| x4   |--2---2----0---0----2---2----2---2---2---2----|
|--2---2----|      |--3---3------2---2--3---3----0---0---0---0----|
|----3---3--|      |----3---3-------------5---5----1---1---1---1--|

|-------------------------------------|
|-------------------------------------|
|--------------------0---0---0---0----|
|--3---3---3---3-----2---2---2---2----|
|--2---3---5---2-----3---3---3---3----|
|--3---5---7---3-------3---3---3---3--|


chorus:

|-----------------------------------------------------------------------|
|-----------------------------------------------------------------------|
|--0---0---0---0----0---0---0---0----0---0---0---0----0---0---0---0-----|
|--2---2---2---2----3---3---3---3----2---2---2---2----2---2---2---2-----|
|--3---3---3---3----3---3---3---3----3---3---3---3----3---3---3---3-----|
|----3---3---3---3----5---5---5---5----3---3---3---3----3---3---3---3---|

|--------------------------------------------------------------|
|--------------------------------------------------------------|
|--0---0---0---0----0---0---1---1------------------------------|
|--3---3---3---3----2---2---0---0----2---2----2---2---2---2----|
|--3---3---3---3----3---3-----2---2--3---3----0---0---0---0----|
|----5---5---5---5----3---3------------5---5----1---1---1---1--|

|-------------------------------------|
|-------------------------------------|
|--------------------0---0---0---0----|
|--3---3---3---3-----2---2---2---2----|
|--2---3---5---2-----3---3---3---3----|
|--3---5---7---3-------3---3---3---3--|


verse:

Once there was a way to get back homeward
once there was a way to get back home
sleep pretty darling do not cry
and I will sing a lulaby

chorus:

golden slumbers fill your eyes
smiles awake you when you rise
sleep pretty darling do not cry
and I will sing a lulaby

verse:

Once there was a way to get back homeward
once there was a way to get back home
sleep pretty darling do not cry
and I will sing a lulaby

		   
AcordesyTabs.com © 2008 Acordes y Tablaturas para guitarra. Tabs and Chords for guitar. Aviso Legal - Contacto
El uso de este sitio está sujeto a la aceptación de los términos y condiciones (32 usuarios online)