tablaturas, partituras y acordes para guitarra
Busca por banda/artista:
 
y/o título de la canción:
A B C D E F G H I J K L M N O P Q R S T U V W X Y Z 0 1 2 3 4 5 6 7 8 9 / Top 100 tabs
Categorías
Usuarios
usuario:
Darse de alta
password:
Artistas más visitados
Publicidad
TOP acordes y tablaturas de Queens Of The Stone Age


Go With The Flow
de Queens Of The Stone Age
Puntúa este acorde/tab:      
(0.4/5)
Reportar este acorde/tab
  Añadir a tus favoritos
  Imprimir
Intro
G|------------------------------------------------------
D|------------------------------------------------------
A|------------------------------------------------------
E|--0-0-0-0-0-0-0-0-0-0-0-0-0-0-0-----------------------

G|------------------------------------------------------
D|------------------------------------------------------
A|-3-3-3-3-3-3-3----------------------------------------
E|---------------0-5-5-5-5-5-5-5-5-0-0-0-0-0-0-0-0-0----

G|-------------------------------------------------------------|
D|-------------------------------------------------------------|
A|-3-3-3-3-3-3-3-----------------------------------------------|
E|---------------0-5-5-5-5-5-5-5-5/12-12-12-12-12-12-12-12-12--|

Verse 1
G|------------------------------------------------------
D|------------------------------------------------------
A|-3-3-3-3-3-3-3----------------------------------------
E|---------------0-5-5-5-5-5-5-5-5-0-0-0-0-0-0-0-0-0----

G|------------------------------------------------------
D|------------------------------------------------------
A|-3-3-3-3-3-3-3----------------------------------------
E|---------------0-5-5-5-5-5-5-5-5-0-0-0-0-0-0-0-0-0----

G|--------------------------------------------------------
D|-------------------------------------2-2-2-2-2-2-2------
A|-3-3-3-3-3-3-3-------------------2-5--------------------
E|---------------0-5-5-5-5-5-5-5-5------------------0-----

G|--------------------------------------------------------------------
D|-------------------------------------2-2-2-2-2-2-2-------2-2-2-2----
A|-3-3-3-3-3-3-3-------------------2-5-----------------2-5------------
E|---------------0-5-5-5-5-5-5-5-5-------------------5-------------0--

G|------------------------------------------------------
D|------------------------------------------------------
A|-3-3-3-3-3-3-3----------------------------------------
E|---------------0-5-5-5-5-5-5-5-5-0-0-0-0-0-0-0-0-0----

G|------------------------------------------------------
D|------------------------------------------------------
A|-3-3-3-3-3-3-3----------------------------------------
E|---------------0-5-5-5-5-5-5-5-5-0-0-0-0-0-0-0-0-0----

chorus
G|-5-5---------2-2-----2--------------------------------------
D|-----5-5---------2-2---2------------------------------------
A|---------3-3------------------------------------------------
E|-------------------------0-0-0-0-0-0-0-0-0-0-0-0-0-0-0-0-0--

Verse 2
G|------------------------------------------------------
D|------------------------------------------------------
A|-3-3-3-3-3-3-3----------------------------------------
E|---------------0-5-5-5-5-5-5-5-5-0-0-0-0-0-0-0-0-0----

G|--------------------------------------------------------------------
D|-------------------------------------2-2-2-2-2-2-2-------2-2-2-2----
A|-3-3-3-3-3-3-3-------------------2-5-----------------2-5------------
E|---------------0-5-5-5-5-5-5-5-5-------------------5-------------0--

G|---------------------------------------------------2------------------
D|-------------------------------------2-2-2-2-5-2-5---5-2---2----------
A|-3-3-3-3-3-3-3-------------------2-5---------------------5---5--------
E|---------------0-5-5-5-5-5-5-5-5-------------------------------0-3-5--

G|------------------------------------------------------
D|------------------------------------------------------
A|-3-3-3-3-3-3-3----------------------------------------
E|---------------0-5-5-5-5-5-5-5-5-0-0-0-0-0-0-0-0-0----


G|--------------------------------------------------------
D|-------------------------------------2-2-2-2-2-2-2------
A|-3-3-3-3-3-3-3-------------------2-5--------------------
E|---------------0-5-5-5-5-5-5-5-5------------------0-----

G|------------------------------------------------------
D|------------------------------------------------------
A|-3-3-3-3-3-3-3----------------------------------------
E|---------------0-5-5-5-5-5-5-5-5-0-0-0-0-0-0-0-0-0----


G|---------------------------------------------------------------------
D|---------------------------------------------------2-2-2-2-2-2-2-----
A|-3-3-3-3-3-3-3-------------------------------------------------------
E|---------------0-5-5-5-5-5-5-5-5-0-0-0-0-0-0-0-0-0---------------0---

G|------------------------------------------------------
D|------------------------------------------------------
A|-3-3-3-3-3-3-3----------------------------------------
E|---------------0-5-5-5-5-5-5-5-5-0-0-0-0-0-0-0-0-0----

Chorus

Parte final
G|------------------------------------------------------------------------------------
D|------------------------------------------------------------------------------------
A|-3-3-3-3-3-3-3-3-5-5-5-5-5-5-5-5-5-7-7-7-7-7-7-7-7-7-7-7-7-7------------------------
E|------------------------------------------------------------------------------------

Última levada:
G|-----------------------------------------------------------------------------------------------
D|-----------------------------------------------------------------------------------------------
A|-3-3-3-3-3-3-3-3-5-5-5-5-5-5-5-5-5-7-7-7-7-7-7-7-7-7-7-7-7-7-----------------------------------
E|-------------------------------------------------------------7/-12-12-12-12-12-12-12-12-12-12--		   
AcordesyTabs.com © 2008 Acordes y Tablaturas para guitarra. Tabs and Chords for guitar. Aviso Legal - Contacto
El uso de este sitio está sujeto a la aceptación de los términos y condiciones (37 usuarios online)