tablaturas, partituras y acordes para guitarra
Busca por banda/artista:
 
y/o título de la canción:
A B C D E F G H I J K L M N O P Q R S T U V W X Y Z 0 1 2 3 4 5 6 7 8 9 / Top 100 tabs
Categorías
Usuarios
usuario:
Darse de alta
password:
Artistas más visitados
Publicidad
TOP acordes y tablaturas de Queensryche


The Mission
de Queensryche
Puntúa este acorde/tab:      
(0.6/5)
Reportar este acorde/tab
  Añadir a tus favoritos
  Imprimir
The Mission
Transcribed by Mark Olsen and Daniel Ocon

Rhy. 1

E-------------------------------------------------------------------------------
B----0------------0--------1-------------1--------2------------2--------1-------
G-------0----0-------0--------0----0-------0--------0----0-------0--------0----0
D----------2----2-------2--------2----2-------2--------2----2------2--------2---
A-------------------------------------------------------------------------------
E-------------------------------------------------------------------------------

Play Rhy. 1 three times

Rhy. 2

E-------0---0---0-----0---0---0---------7---------0---0---0----------0----0----0
B-------0---0---0-----0---0---0---------0---------0---0---0----------0----0----0
G-------9---9---9-----9---9---9---------9---------9---9---9----------9----9----9
D-------9---9---9-----9---9---9---------9---------9---9---9---------10---10---10
A-------7---7---7-----7---7---7---------7---------7---7---7----------7----7----7
E---0---0---0---0-----0---0---0---0-----0---0-----0---0---0---0------0----0----0

E---------0----------0---0---0---------0---0---0----------7----------0---0---0--
B---------0----------0---0---0---------0---0---0----------0----------0---0---0--
G---------9----------9---9---9---------9---9---9----------9----------9---9---9--
D---------7----------9---9---9---------9---9---9----------9----------9---9---9--
A---------7----------7---7---7---------7---7---7----------7----------7---7---7--
E----0----0-----0----0---0---0-----0---0---0---0-----0----0-----0----0---0---0--

E--------0---0---0---------0---0---0----------7----------0---0---0----------0---
B--------0---0---0---------0---0---0----------0----------0---0---0----------0---
G--------9---9---9---------9---9---9----------9----------9---9---9----------9---
D--------9---9---9---------9---9---9----------9----------9---9---9---------10---
A--------7---7---7---------7---7---7----------7----------7---7---7----------7---
E---0----0---0---0-----0---0---0---0-----0----0-----0----0---0---0-----0----0---

E---------0----------0---0---0---------0---0---0----------7----------0---0---0--
B---------0----------0---0---0---------0---0---0----------0----------0---0---0--
G---------9----------9---9---9---------9---9---9----------9----------9---9---9--
D---------7----------9---9---9---------9---9---9----------9----------9---9---9--
A---------7----------7---7---7---------7---7---7----------7----------7---7---7--
E----0----0-----0----0---0---0-----0---0---0---0-----0----0-----0----0---0---0--

Rhy. 3

E-------------------------------------------------------------------------------
B-------------------------------------------------------------------------------
G-------------------------------------------------------------------------------
D-------9--9------10-10-----7-----12--12-----10-10-------7---------9--9-----10--
A-------7--7------7---7-----7------9---9------7--7-------7---------7--7------7--
E---0----------0---------0------0----------0--------0--------0-----------0------

E-------------------------------------------------------------------------------
B-------------------------------------------------------------------------------
G-------------------------------------------------------------------------------
D-------12--12--------10--10--10--12--------------------------------------------
A--------9---9--------10--10--10--12--------------------------------------------
E----0------------0-------------------------------------------------------------

Play Rhy. 3 two times

Rhy. 4

E-------------------------------------------------------------------------------
B-------------------------------------------------------------------------------
G----5--5--5--5--5--5--5--5-----7--7--7--7--7--7--7--7--------------------------
D----5--5--5--4--4--4--3--3-----7--7--7--5--5--5--4--4-----4--4--4--5--5--5--4--
A----3--3--3--3--3--3--3--3-----5--5--5--5--5--5--5--5-----2--2--2--2--2--2--2--
E-------------------------------------------------------------------------------

E-------------------------------------------------------------------------------
B-------------------------------------------------------------------------------
G-----5--5--5--5--5--5--5--5-----5--5--5--5--5--5--5--5-----7--7--7--7--7--7--7-
D-----5--5--5--4--4--4--3--3-----5--5--5--4--4--4--3--3-----7--7--7--5--5--5--4-
A-----3--3--3--3--3--3--3--3-----3--3--3--3--3--3--3--3-----5--5--5--5--5--5--5-
E-------------------------------------------------------------------------------

E-------------------------------------------------------------------------------
B-------------------------------------------------------------------------------
G--------------------------------5--7-------------------------------------------
D-----4--4--4--5--5--5--4--4-----5--7-------------------------------------------
A-----2--2--2--2--2--2--2--2-----3--5-------------------------------------------
E-------------------------------------------------------------------------------

Rhy. 5

E-------------------------------------------------------------------------------
B-------------------------------------------------------------------------------
G-------------------------------------------------------------------------------
D--------9--9--9-----10--10--10-------7------12--12--12-------10--10--10------7-
A--------7--7--7------7---7---7-------7-------9---9---9--------7---7---7------7-
E----0------------0---------------0-------0-----------------0-------------0-----

E-------------------------------------------------------------------------------
B-------------------------------------------------------------------------------
G-------------------------------------------------------------------------------
D--------10--10--10------7-----12--12-12-----10-10-10-12------------------------
A---------7---7---7------7------9---9--9-----10-10-10-12------------------------
E----0---------------0-------0------------0-------------------------------------

Play Rhy. 5 three times

Play Rhy. 4 one time

Rhy. 6

E-------------------------------------------------------------------------------
B-------------------------------------------------------------------------------
G-----4--5--4--11--11--9---12--12---9---11-11---9---5-----4--5--4--11-11---9---1
D---------------------------------------------------5---------------------------
A-----2--3--2---9---9--7---10--10---7----9--9---7---3-----2--3--2---9--9---7---1
E-----0--0--0---0---0--0----0---0---0----0--0---0---------0--0--0---0--0---0----

E-------------------------------------------------------------------------------
B-------------------------------------------------------------------------------
G----11--11---9---7-------------------------------------------------------------
D-----------------7-------------------------------------------------------------
A-----9---9---7---5-------------------------------------------------------------
E-----0---0---0-----------------------------------------------------------------

Play Rhy. 6 two times

Play Rhy. 1 one time

Solo

E-------------------------------------------------------------------------------
B------h---sl-------h-----------------------------------------------------------
G----6--2----9----9---12--11---------h---sl------sl-sl--------------------------
D----------------------------------11--13--9----8--9--7-----------p---h-------p-
A---------------------------------------------------------------10--9--10---10--
E-------------------------------------------------------------------------------

E-------------------------------------------------------------h---h--p---p------
B-----sl-----------------------------------h----h---p--p----8--10--12--10--8----
G----7--9--7-----------sl-----------h-----9--10--12--10--9----------------------
D---------------7--x--7--10--9----11--12----------------------------------------
A-------------------------------------------------------------------------------
E-------------------------------------------------------------------------------
                                                                                
E------h----h--p----p--------h----h---p--p---h----h------12---12--14--15--15----
B----10--12--13--12--10----12--13--15--13--12--13--15---------------------------
G-------------------------------------------------------------------------------
D-------------------------------------------------------------------------------
A-------------------------------------------------------------------------------
E-------------------------------------------------------------------------------
              p                           b                    p                
E----------14--12---------------12--15--17--17--15--17--15--19--15--------------
B----14---------------14--14----------------------------------------------------
G-------------------------------------------------------------------------------
D-------------------------------------------------------------------------------
A-------------------------------------------------------------------------------
E-------------------------------------------------------------------------------
                   p                              b                             
E---14--15--14--12---17--19--21--21-------------17--19--21--19--17--------------
B-------------------------------------------------19--21------------------------
G-------------------------------------------------------------------------------
D-------------------------------------------------------------------------------
A-------------------------------------------------------------------------------
E-------------------------------------------------------------------------------

E--------h----h----p----p-------------------------------------------------------
B----17--19--21--19--17------h----h----p----p-----------------------------------
G--------------------------------17--19--21--19--17------h----h----p----p-------
D------------------------------------------------------------17--19--21--19--17-
A-------------------------------------------------------------------------------
E-------------------------------------------------------------------------------

Play Rhy. 3 two times

Play Rhy. 4 one time

Play Rhy. 6 four times

Rhy. 7 

E-------------------------------------------------------------------------------
B-------------------------------------------------------------------------------
G--11---9--11-12--11-12--14--12--14--16--19---11--9---11--12--11--12--14--12--14
D-------------------------------------------------------------------------------
A---9---7----9--10--9--10--12--10--12--14--17----9---7---9---10---9---10--12--10
E---0---0----0---0---0---0----0---0----0----0----0-----0---0---0----0---0----0--

E-------------------------------------------------------------------------------
B-------------------------------------------------------------------------------
G----9--9--9-----9--9--9--9-----9--9--9-----------------------------------------
D----9--9--9-----9--9--9--9-----9--9--9-----------------------------------------
A----7--7--7-----7--7--7--7-----7--7--7-----------------------------------------
E----0--0--0-----0--0--0--0-----0--0--0-----------------------------------------













		   
AcordesyTabs.com © 2008 Acordes y Tablaturas para guitarra. Tabs and Chords for guitar. Aviso Legal - Contacto
El uso de este sitio está sujeto a la aceptación de los términos y condiciones (23 usuarios online)