tablaturas, partituras y acordes para guitarra
Busca por banda/artista:
 
y/o título de la canción:
A B C D E F G H I J K L M N O P Q R S T U V W X Y Z 0 1 2 3 4 5 6 7 8 9 / Top 100 tabs
Categorías
Usuarios
usuario:
Darse de alta
password:
Artistas más visitados
Publicidad
TOP acordes y tablaturas de Radiohead


Estás en: Inicio > Letra R > Acordes y tablaturas de Radiohead > Anyone Can Play Guitar
Anyone Can Play Guitar
de Radiohead
Puntúa este acorde/tab:      
(0.7/5)
Reportar este acorde/tab
  Añadir a tus favoritos
  Imprimir
#----------------------------------PLEASE NOTE--------------------------------#
#This file is the author's own work and represents their interpretation of the#
#song. You may only use this file for private study, scholarship, or research.#
#-----------------------------------------------------------------------------#
#-- File created with Instab - http://www.pconline.com/~smcarey/instab.html --#
#-----------------------------------------------------------------------------#

-0----12--12---0---12---------------------------------------------------------
-0----------------------------------------------------------------------------
-0----------------------------------------------------------------------------
-2----------------------------------------------------------------------------
-2----------------------------7--6----------10---9-------13--12---------------
-0----------------------------------------------------------------------------
  INTRO                                                                       

-0-----0/8---8---8x-----/8-----x--8--------------------------------------
-0-----0/8---8---8x-----/8-----x--8--------------------------------------
-0-----0/9---9---9x-----/9-----x--9--------------------------------------
-2-----2/10--10-10x2-----/10----x-10--2------------------------------------
-2-----2/10--10-10x2-----/10----x-10--2------------------------------------
-0-----0/8---8---8x-----/10----x--8--------------------------------------
 destiny destine protect me from above,hold my hand protect me from world     

-0--------0/x/8-------------8x------------0/x/8----------------------------
-0--------0/x/8-------------8x------------0/x/8----------------------------
-0--------0/x/9-------------9x------------0/x/9----------------------------
-2--------2/x/10-----------10x2------------2/x/10---------------------------
-2--------2/x/10-----------10x2------------2/x/10---------------------------
-0--------0/x/8-------------8x------------0/x/8----------------------------
 ADD                                                                          

------------------------------------------------------------------------------
---11--13-------------11--13---------13-11-13---------------------------------
-----------12-----------------12-----------------12---------------------------
------------------------------------------------------------------------------
------------------------------------------------------------------------------
------------------------------------------------------------------------------
       BRIDGE                                                                 

------------------------------------------------------------------------------
------------------------------------------------------------------------------
--11-12-14-12-11---9----11-12--14--16--16--16---------------------------------
------------------------------------------------------------------------------
--9--10-12-10-9----7----9--10--12--14--14--14---------------------------------
------------------------------------------------------------------------------
    CHORUS                                                                    

------------------------------------------------------------------------------
------------------------------------------------------------------------------
---------------5--5--2--------7----7------------------------------------------
---5--5--2-----5--5--2--------7----7----5-----2-------7-----------------------
---5--5--2-----3--2--0--------5----3----5-----2-------7-----------------------
---3--2--0------------------------------3-----0-------5-----------------------
                                                                              

------------------------------------------------------------------------------
------------------------------------------------------------------------------
---7-----------5---5--2----7---------------7----------------------------------
---7---5-5--2--5---5--2----7-----5-----2---7----------------------------------
---5---5-5--2--3---2--0----5-----5-----2---5----------------------------------
-------3-2--0--------------------3-----0--------------------------------------
        INTERLUDE                                                             

------------------------------------------------------------------------------
------------------------------------------------------------------------------
---5-----------------------------------------------------------9--7--5--4-----
---5--------------------------------------------------------------------------
---3--------------------------------------------------------------------------
--------3--2--0-----0--2--3--5--6---5--3--6--5--3--6--5--3--0-----------------
                                                                              

------------------------------------------------------0-----------------------
------------------------------------------------------0-----------------------
------------------------------------------------------0-----------------------
---5---7---8------7---5---8-----7---5---8----7---5----2-----------------------
------------------------------------------------------2-----------------------
---3---5---6------5---3---6-----5---3---6----5---3----0-----------------------
                                                                              

------------------------------------------------------------------------------
------------------------------------------------------------------------------
-11--12--14--12-11------9-----11-------12------14-----16--17--19--------------
------------------------------------------------------------------------------
--9--10--12--10--9------7------9-------10------12-----14--15--17--------------
------------------------------------------------------------------------------
                                                                              

------------------------------------------------------------------------------
------------------------------------------------------------------------------
--19---19--19----17-19-19--17-19-19--17-19-19--17161412119754--------
------------------------------------------------------------------------------
--17---17--17-----------------------------------------------------------------
------------------------------------------------------------------------------
                                                                              

		   
AcordesyTabs.com © 2008 Acordes y Tablaturas para guitarra. Tabs and Chords for guitar. Aviso Legal - Contacto
El uso de este sitio está sujeto a la aceptación de los términos y condiciones (33 usuarios online)