tablaturas, partituras y acordes para guitarra
Busca por banda/artista:
 
y/o título de la canción:
A B C D E F G H I J K L M N O P Q R S T U V W X Y Z 0 1 2 3 4 5 6 7 8 9 / Top 100 tabs
Categorías
Usuarios
usuario:
Darse de alta
password:
Artistas más visitados
Publicidad
TOP acordes y tablaturas de Rammstein


Estás en: Inicio > Letra R > Acordes y tablaturas de Rammstein > Feuer Frei 1
Feuer Frei 1
de Rammstein
Puntúa este acorde/tab:      
(0.8/5)
Reportar este acorde/tab
  Añadir a tus favoritos
  Imprimir
Artist:     Rammstein

Song title: Feuer Frei

Intro 1:

e:--------------------------------|
B:--------------------------------|
G:--------------------------------|
D:----4---------------------------|
A:----4---------------------------|
E:----2---------------------------|

Intro 2

e:-----------------------------------|
B:-----------------------------------|
G:---------(palm muted)-------------.| x8
D:----------------------------------.|
A:-----------------------------------|
E:---2-3-2-3-2-3-2-3-5-5-------------|

Chorus:

e:-----------------------------------|
B:-----------------------------------|
G:----------------------------------.|
D:----4-5-4-5-4-5-4-5-7-7-----------.|
A:----4-5-4-5-4-5-4-5-7-7------------|
E:----2-3-2-3-2-3-2-3-5-5------------|


Bridge

e:----------------------------------|
B:----------------------------------|
G:----------------------------------|
D:----11---10---7------11---10---7--|
A:----11---10---7------11---10---7--|
E:-----9----8---5-------9----8---5--|

Intro 1

Intro 2(4x)

Intro 2 over verse
Getadelt wird wer Schmerzen kennt
Vom Feuer das die Haut verbrennt
Ich werf ein Licht
In mein Gesicht
Ein heisser Schrei
Feuer frei!

Chorus(4x)
Bang bang
Bang bang

Bridge(2x)

Intro 2 over verse
Geadelt ist wer Schmerzen kennt
Vom Feuer das in Lust verbrennt
Ein Funkenstoss
In ihren Schoss
Ein heisser Schrei
Feuer frei!

Chorus(4x)
Bang bang
Feuer frei!

Bridge(2x)

Chorus
Gefahrlich ist wer Schmerzen kennt
Vom Feuer das den Geist verbrennt
Bang bang
Gefahrlich das gebrannte Kind
Mit Feuer das vom Leben trennt
Ein heisser Schrei
Bang bang
Feuer frei!

Intro
(whispered)
Dein Gluck
Ist nicht mein Gluck
Ist mein Ungluck

Chorus
Bang bang
Feuer frei! 

Feuer frei!!!


		   
AcordesyTabs.com © 2008 Acordes y Tablaturas para guitarra. Tabs and Chords for guitar. Aviso Legal - Contacto
El uso de este sitio está sujeto a la aceptación de los términos y condiciones (23 usuarios online)