tablaturas, partituras y acordes para guitarra
Busca por banda/artista:
 
y/o título de la canción:
A B C D E F G H I J K L M N O P Q R S T U V W X Y Z 0 1 2 3 4 5 6 7 8 9 / Top 100 tabs
Categorías
Usuarios
usuario:
Darse de alta
password:
Artistas más visitados
Publicidad
TOP acordes y tablaturas de Rammstein


Mutter
de Rammstein
Puntúa este acorde/tab:      
(0.8/5)
Reportar este acorde/tab
  Añadir a tus favoritos
  Imprimir



                                      Rammstein - Mutter               From albu
  

Intro  
        Em                              H                                       
                            2nd time : "waa waa waa...    wah...  wah!          
E------------------------7-------------------------7---------------7------------
H--------------8-----8-------8-8-------10--------7---7-----------7---7----------
G------------9---9-----9---------9-------------8-------8-------8-------8--------
D----------9-------------------------9-------9---------------9------------------
A--------7---------------------------------9---------------9--------------------
E----------------------------------------7---------------7----------------------


Verse 1.
        Em                              H                     (last time, drumfi
E------------------------7-------------------------7---------------7------------
H--------------8-----8-------8-8-------10--------7---7-----------7---7----------
G------------9---9-----9---------9-------------8-------8-------8-------8--------
D----------9-------------------------9-------9---------------9------------------
A--------7---------------------------------9---------------9--------------------
E----------------------------------------7---------------7----------------------



 
      Verse 1. lyrics

      Die tränen greiser kinderschar
     ich zieh sie auch ein weises haar
      werf in die luft ein nassee kette
      und wunsch mir dass ich eine mutter hätte
      keine sonne die mir scheint
      keine brust hat milch gewee-ee- eint
      meine kile stchekt ein schlauch
      hab keine naare lauf den bauch!


  


  Chorus          

  1. gtr.   "Mutter!"    "Mutter!"                        "Mutter!"    "Mutter!"
E----------------------7^--------5-7--5------------------------------7^-------5-
H---------/5^------7-8--------------------7^-----7/8-7---/5^----7-8-------------
G-------------------------------------------------------------------------------
D-------------------------------------------------------------------------------
A-------------------------------------------------------------------------------
E-------------------------------------------------------------------------------

   2. gtr. Em, G, H7, H7 / 2x (with heavy distortion)



   Verse 2. 

        Em                              H                     (last time, drumfi
E------------------------7-------------------------7---------------7------------
H--------------8-----8-------8-8-------10--------7---7-----------7---7----------
G------------9---9-----9---------9-------------8-------8-------8-------8--------
D----------9-------------------------9-------9---------------9------------------
A--------7---------------------------------9---------------9--------------------
E----------------------------------------7---------------7----------------------



 Verse 2. lyrics

ich dorf die keine nippel lecken
und keine fallte zum ferstecken 
niemand gab mir einen namen
gezolten hast und ohne sahren
der mutter diimiir niigel wohren
hab ich heute nach geschwoo-oo-ren
ich werte dir eine krankheit schenken
und sie dann achen flusch werschenken!

Chorus 2x

B-part (or bridge or whatever) : 

 
E-------------------------------------------------------------------------------
H-------------------------------------------------------------------------------
G-5-5-5-5-5-5-5-5-5-5-5-5-5-5-5-5---7-7-7-7-7-7-7-7--4-4-4-4-4-4-4-4------------
D-5-5-5-5-5-5-5-5-5-5-5-5-5-5-5-5---7-7-7-7-7-7-7-7--4-4-4-4-4-4-4-4------------
A-3-3-3-3-3-3-3-3-3-3-3-3-3-3-3-3---5-5-5-5-5-5-5-5--2-2-2-2-2-2-2-2------------
E-------------------------------------------------------------------------------



lyrics...

        in ihren lungen wohnt ein aal
auf meiner stirn ein muttermal
entferne es mit messers kuss
auch wenn ich daran sterben muss


And then... silence. Followed by some violin playin. 
 
                                    
"mutter.... mutter? mutter! (a drumfill here) MUTTER!!!"

Chorus 2x without "Mutter!" shouts. And also play it one melodystep (or whatever
        Like this.
        1. gtr.
E-----------------------9^--------7-9--7------------------------------9^-------7
H---------/7^------9-10--------------------9^-----9/10-9---/7^----9-10----------
G-------------------------------------------------------------------------------
D-------------------------------------------------------------------------------
A-------------------------------------------------------------------------------
E-------------------------------------------------------------------------------

2. gtr. F#m(Em grab from the 2nd grid), H#(F grab from the 5th grid), C#7(A7 gra
(with heavy distortion 

B-part


Chorus 2x (like above) Except "Mutter!" shouts come back again. 

That's about it! Listen to the record for the correct timing.

This was my first tab so don't be too upset if something doesn't sound right!
You can send feedback, corrections or anything to : evurakufa@msn.com

This song was tabbed by : Henri Nousiainen
 



 

		   
AcordesyTabs.com © 2008 Acordes y Tablaturas para guitarra. Tabs and Chords for guitar. Aviso Legal - Contacto
El uso de este sitio está sujeto a la aceptación de los términos y condiciones (22 usuarios online)