tablaturas, partituras y acordes para guitarra
Busca por banda/artista:
 
y/o título de la canción:
A B C D E F G H I J K L M N O P Q R S T U V W X Y Z 0 1 2 3 4 5 6 7 8 9 / Top 100 tabs
Categorías
Usuarios
usuario:
Darse de alta
password:
Artistas más visitados
Publicidad
TOP acordes y tablaturas de Rammstein


Sehnsucht
de Rammstein
Puntúa este acorde/tab:      
(0.4/5)
Reportar este acorde/tab
  Añadir a tus favoritos
  Imprimir
Sehnsucht
R A M M S T E I N
Tabbed By Aaron Bridgeman (rokken@sicness.net)

http://bogans.arecool.net

KEY:
pm. = palm mute
   = slide down
~   = sustain

MAIN RIFF:
e|-----------------------------------|
B|-----------------------------------|
G|-----------------------------------|
D|-------98---109--12-----10---97-|
A|-------76---8\7--10-----8----75-|
E|-0-0-0-----0----------0-0---00-----|
pm . . .     .          . .   ..

FILL:
e|----------|
B|----------|
G|----------|
D|-5--------|
A|-3-5-7-2~-|
E|---3-5-0~-|

CHORUS NEAR END:
e|-----------------------------------------|
B|-----------------------------------------|
G|-----------------------------------------|
D|-9~~---------9~~-------------------------|
A|-7~~---------7~~---------10~~--10-9--7~~-|
E|-----0-0-0-0-----0-0-0-0-8~~~--8--7--5~~-|
pm     . . . .     . . . .

RAMMSTEIN!
		   
AcordesyTabs.com © 2008 Acordes y Tablaturas para guitarra. Tabs and Chords for guitar. Aviso Legal - Contacto
El uso de este sitio está sujeto a la aceptación de los términos y condiciones (28 usuarios online)