tablaturas, partituras y acordes para guitarra
Busca por banda/artista:
 
y/o título de la canción:
A B C D E F G H I J K L M N O P Q R S T U V W X Y Z 0 1 2 3 4 5 6 7 8 9 / Top 100 tabs
Categorías
Usuarios
usuario:
Darse de alta
password:
Artistas más visitados
Publicidad
TOP acordes y tablaturas de Rammstein


Sonne
de Rammstein
Puntúa este acorde/tab:      
(0.6/5)
Reportar este acorde/tab
  Añadir a tus favoritos
  Imprimir
Rammstein
"Sonne"
Mutter
tab by björn elsner (bjoern.elsner@gmx.de)

Intro/verse-Riff:
|-----------------p--------|
|-----------------a--------|
|-----------------u--------|
|-0-1-0-1-0-1-0-0-s-0-1-0-0|
|-0-1-0-1-0-1-0-0-e-0-1-0-0|
|-0-1-0-1-0-1-0-0---0-1-0-0|

Verse 1:
Alle warten auf das licht,
fürchtet euch, fürchtet euch nicht
die sonne scheint mir aus den augen
sie wird heut' nacht nicht untergehen
und die welt zählt laut bis zehn

Chorus
|--------------------------|
|--------------------------|
|--------------------------|
|-2---5------4----4---4--2-|
|-2---5------4----4---4--2-|
|-0---3------2----2---2--0-|
eins  hier kommt die son-ne

|--------------------------|
|--------------------------|
|--------------------------|
|-2---7------5----5---5--4-|
|-2---7------5----5---5--4-|
|-0---5------3----3---3--2-|
zwei hier kommt die son-ne

|-----------------------------------------|
|-----------------------------------------|
|-----------------------------------------|
|-2---7----7--7----2---------9---9----5---|
|-2---7----7--7----2---------9---9----5---|
|-0---5----5--5----0---------7---7----3---|
drei  sie ist der hellste  stern von allen

|--------------------------|
|--------------------------|
|--------------------------|
|-2---5------4----4---4--2-|
|-2---5------4----4---4--2-|
|-0---3------2----2---2--0-|
vier  hier kommt die son-ne

|--------------------------|
|--------------------------|
|--------------------------|
|-2---7------5----5---5--4-|
|-2---7------5----5---5--4-|
|-0---5------3----3---3--2-|
fünf hier kommt die son-ne

|-----------------------------------------|
|-----------------------------------------|
|-----------------------------------------|
|-2---7----7--7----2---------9---9----5---|
|-2---7----7--7----2---------9---9----5---|
|-0---5----5--5----0---------7---7----3---|
sechs  sie ist der hellste  stern von allen

|--------------------------|
|--------------------------|
|--------------------------|
|-2---5------4----4---4--2-|
|-2---5------4----4---4--2-|
|-0---3------2----2---2--0-|
sieben  hier kommt die son-ne

|--------------------------|
|--------------------------|
|--------------------------|
|-2---7------5----5---5--4-|
|-2---7------5----5---5--4-|
|-0---5------3----3---3--2-|
acht hier kommt die son-ne

Then there are folloing some verses.no need to tab them,
just listen to the record, you might get it quickly.
THNX,Björn

		   
AcordesyTabs.com © 2008 Acordes y Tablaturas para guitarra. Tabs and Chords for guitar. Aviso Legal - Contacto
El uso de este sitio está sujeto a la aceptación de los términos y condiciones (20 usuarios online)