tablaturas, partituras y acordes para guitarra
Busca por banda/artista:
 
y/o título de la canción:
A B C D E F G H I J K L M N O P Q R S T U V W X Y Z 0 1 2 3 4 5 6 7 8 9 / Top 100 tabs
Categorías
Usuarios
usuario:
Darse de alta
password:
Artistas más visitados
Publicidad
TOP acordes y tablaturas de Ramones


Estás en: Inicio > Letra R > Acordes y tablaturas de Ramones > Blitzkreig Bop
Blitzkreig Bop
de Ramones
Puntúa este acorde/tab:      
(0.4/5)
Reportar este acorde/tab
  Añadir a tus favoritos
  Imprimir
------------------------------------------
------------------------------------------
------------------------------------------
------------------------------------------
-7-7-7-7-7-12-12-14-14-14----------------- 
-5-5-5-5-5-10-10-12-12-12----------------- x3
 


-----------------------------
-----------------------------
-----------------------------
-----------------------------
-7-7-12-12-7-7-7------------- 
-5-5-10-10-5 5 5-------------





repeat this through out the whole song
it's the easiest tabs ever

drew
		   
AcordesyTabs.com © 2008 Acordes y Tablaturas para guitarra. Tabs and Chords for guitar. Aviso Legal - Contacto
El uso de este sitio está sujeto a la aceptación de los términos y condiciones (23 usuarios online)