tablaturas, partituras y acordes para guitarra
Busca por banda/artista:
 
y/o título de la canción:
A B C D E F G H I J K L M N O P Q R S T U V W X Y Z 0 1 2 3 4 5 6 7 8 9 / Top 100 tabs
Categorías
Usuarios
usuario:
Darse de alta
password:
Artistas más visitados
Publicidad
TOP acordes y tablaturas de 3 Doors Down


When Im Gone
de 3 Doors Down
Puntúa este acorde/tab:      
(0.6/5)
Reportar este acorde/tab
  Añadir a tus favoritos
  Imprimir
#----------------------------------PLEASE NOTE--------------------------------#
#This file is the author's own work and represents their interpretation of the#
#song. You may only use this file for private study, scholarship, or research.#
#-----------------------------------------------------------------------------#
#-- File created with Instab - http://www.pconline.com/~smcarey/instab.html --#
#-----------------------------------------------------------------------------#

Author/Artist: 3 doors down
Title: when im gone
Transcribed by: logan oldham
-0-3-3------------------------------------------------------------------------
-1-3-3------------------------------------------------------------------------
-2-0-0------------------------------------------------------------------------
-2-2-0------------------------------------------------------------------------
-0-3-2------------------------------------------------------------------------
-----3------------------------------------------------------------------------
  chords for the verse am c and g                                             

------------------------------------------------------------------------------
------------------------------------------------------------------------------
-----------77-----------------------------------------------------------------
-777-------77-55--------------------------------------------------------------
-777-2h3p2-55-55-2h3h2p2------------------------------------------------------
-555----------33--------------------------------------------------------------
 just repeat that for tha chorus                                              

		   
AcordesyTabs.com © 2008 Acordes y Tablaturas para guitarra. Tabs and Chords for guitar. Aviso Legal - Contacto
El uso de este sitio está sujeto a la aceptación de los términos y condiciones (29 usuarios online)