tablaturas, partituras y acordes para guitarra
Busca por banda/artista:
 
y/o título de la canción:
A B C D E F G H I J K L M N O P Q R S T U V W X Y Z 0 1 2 3 4 5 6 7 8 9 / Top 100 tabs
Categorías
Usuarios
usuario:
Darse de alta
password:
Artistas más visitados
Publicidad
TOP acordes y tablaturas de Rolling Stones


Brown Sugar
de Rolling Stones
Puntúa este acorde/tab:      
(0.2/5)
Reportar este acorde/tab
  Añadir a tus favoritos
  Imprimir
Rolling Stones
Brown Sugar

This is the intro to Brown Sugar. There’s some odd strumming in this song, 
so listen to the song and try and work it out. If you have any suggestions 
or changes email me at buzz_masta@hotmail.com. 
Have fun J,
Spicolli
 

E -------8-p-7--------x---x---6-------------------------8-p-7------x---x---6----
B -------8---8--------5---5---6-------------------------8---8------5---5---6----
G -------7---7--------5---5---5-------------------------7---7------5---5---5----
D---------------------5---5---5-----------3---5---5----------------5---5---5----
A --------------------3---3---3---4/5------------------------------3---3---3---4
E --------------------x---x---x------------------------------------x---x---x----


E -------8-p-7--------x---x---6-------------------------8-p-7------x---x---6---6
B -------8---8--------5---5---6-------------------------8---8------5---5---6---6
G -------7---7--------5---5---5-------------------------7---7------5---5---5---5
D---------------------5---5---5-----------3---5---5----------------5---5---5---5
A --------------------3---3---3---4/5------------------------------3---3---3---3
E --------------------x---x---x------------------------------------x---x---x---x


E-x---x---x---10---10---10-----x---x---6---6---6-----x---x------x---x----x---x--
B-9---9---9---10---10---10-----5---5---6---6---6-----4---4------6---6----5---5--
G-9---9---9---9-----9----9-----5---5---5---5---5-----5---5------7---7----5---5--
D-9---9---9---9-----9----9-----5---5---5---5---5-----4---4------6---6----5---5--
A-7---7---7---7-----7----7-----3---3---3---3---3-----6---6------8---8----3---3--
E-x---x---x---x-----x----x-----x---x---x---x---x-----4---4------6---6--- x---x--


E-x---x---x---10---10---10-----x---x---6---6---6-----x---x------x---x----x---x--
B-9---9---9---10---10---10-----5---5---6---6---6-----4---4------6---6----5---5--
G-9---9---9---9-----9----9-----5---5---5---5---5-----5---5------7---7----5---5--
D-9---9---9---9-----9----9-----5---5---5---5---5-----4---4------6---6----5---5--
A-7---7---7---7-----7----7-----3---3---3---3---3-----6---6------8---8----3---3--
E-x---x---x---x-----x----x-----x---x---x---x---x-----4---4------6---6--- x---x--
		   
AcordesyTabs.com © 2008 Acordes y Tablaturas para guitarra. Tabs and Chords for guitar. Aviso Legal - Contacto
El uso de este sitio está sujeto a la aceptación de los términos y condiciones (31 usuarios online)