tablaturas, partituras y acordes para guitarra
Busca por banda/artista:
 
y/o título de la canción:
A B C D E F G H I J K L M N O P Q R S T U V W X Y Z 0 1 2 3 4 5 6 7 8 9 / Top 100 tabs
Categorías
Usuarios
usuario:
Darse de alta
password:
Artistas más visitados
Publicidad
TOP acordes y tablaturas de Rolling Stones


Wild Horses
de Rolling Stones
Puntúa este acorde/tab:      
(0.3/5)
Reportar este acorde/tab
  Añadir a tus favoritos
  Imprimir
|---------------------------------8--8-7s8-8-7s8------
|------8-8-----8-8--8---8-8-8---8---------------------
|--7s9-----7s9--------9-------9-----------------------
|-----------------------------------------------------
|--------------------------------------------------~~~
|-----------------------------------------------------

|-----(/12)-8-6-8--------------12-12-8-------8--------
|---8-------------8-6s8-6--------------8-6s8---8s6----
|-------------------------8-5----------------------7--
|-----------------------------------------------------
|--------------------------------------------------~~~
|-----------------------------------------------------

|---7-7-7b-----6b7--------7-6s7-7----------------7-7-7b
|------------------8-5s7----------8------8---8---------
|-----------------------------------9------9-----------
|------------------------------------------------------
|--------------------------------------------------~~~-
|------------------------------------------------------
		   
AcordesyTabs.com © 2008 Acordes y Tablaturas para guitarra. Tabs and Chords for guitar. Aviso Legal - Contacto
El uso de este sitio está sujeto a la aceptación de los términos y condiciones (25 usuarios online)