tablaturas, partituras y acordes para guitarra
Busca por banda/artista:
 
y/o título de la canción:
A B C D E F G H I J K L M N O P Q R S T U V W X Y Z 0 1 2 3 4 5 6 7 8 9 / Top 100 tabs
Categorías
Usuarios
usuario:
Darse de alta
password:
Artistas más visitados
Publicidad
TOP acordes y tablaturas de Silverchair


Freak
de Silverchair
Puntúa este acorde/tab:      
(0.2/5)
Reportar este acorde/tab
  Añadir a tus favoritos
  Imprimir

Silverchair - Freak
drop d
 
 = slide
pm= palm mute
 
intro:
|-----------------------------------------------|
|-----------------------------------------------|
|-----------------------------------------------|
|-----------------------------------------------|
|-------2-0-2----2-2-2-2-0-0-0-----------|
|-------2-0-2----2-2-2-2-0-0-0-----------|
 
pre-chorus:
|------------------------------------------------------------|
|------------------------------------------------------------|
|------------------------------------------------------------|
|-------0-0-0------0-3-4-4----0-0-3-4-4-4-4-4-----|
|-------0-0-0------0-3-4-4----0-0-3-4-4-4-4-4-----|
 
chorus:
|------------------------------------------------------------|
|------------------------------------------------------------|
|------------------------------------------------------------|
|-------6---------------------------------------------------|
|-------3pm-----------------------------------------------|
|-----------------13pm----1----0pm----13pm-----|
 
brige:
|--------------------|
|--------------------|
|--------------------|
|--------------------|
|----3----0--------|
|----3----0--------|
 
 


		   
AcordesyTabs.com © 2008 Acordes y Tablaturas para guitarra. Tabs and Chords for guitar. Aviso Legal - Contacto
El uso de este sitio está sujeto a la aceptación de los términos y condiciones (28 usuarios online)