tablaturas, partituras y acordes para guitarra
Busca por banda/artista:
 
y/o título de la canción:
A B C D E F G H I J K L M N O P Q R S T U V W X Y Z 0 1 2 3 4 5 6 7 8 9 / Top 100 tabs
Categorías
Usuarios
usuario:
Darse de alta
password:
Artistas más visitados
Publicidad
TOP acordes y tablaturas de Beatles


Estás en: Inicio > Letra B > Acordes y tablaturas de Beatles > Hard Days Night
Hard Days Night
de Beatles
Puntúa este acorde/tab:      
(0.4/5)
Reportar este acorde/tab
  Añadir a tus favoritos
  Imprimir
   Hard Day's Night  (Standard Tuning)
   Beatles

   Intro chord (D7sus4)
   -3--------------------------------------------------------------
   -1--------------------------------------------------------------
   -2--------------------------------------------------------------
   ----------------------------------------------------------------
   ----------------------------------------------------------------
   ----------------------------------------------------------------

   Verse

    G      F6      G      F6
   -3------1-------3------1------------------------------------------
   --------3--------------3------------------------------------------
   --------2--------------2------------------------------------------
   --------3--------------3------------------------------------------
   -2--------------2-------------------------------------------------
   -3--------------3-------------------------------------------------


   Chorus

    C      D7      G      C      G
   ----------------3-------------3-------------------------------------
   -1------3--------------1--------------------------------------------
   --------5-----------------------------------------------------------
   -2------4--------------2--------------------------------------------
   -3------5-------2------3------2-------------------------------------
   ----------------3-------------3-------------------------------------


   Bridge

    Bm      G      Bm      G      Em      C      D7
   -2-------3------2-------3-----------------------------------------------
   -3-------3------3-------3--------------1------3-------------------------
   -4-------4------4-------4---------------------5-------------------------
   -4-------5------4-------5------2-------2------4-------------------------
   -2-------5------2-------5------2-------3------5-------------------------
   -2-------3------2-------3-----------------------------------------------


   Solo


   ------------------------------------------------------------------------
   ------------------------------------------------------------------------
   -----------------------------------10----10----10-----------------------
   -----------8--10--8---10/12---10h12-10h12-10h12---10--8-----------------
   -10----10-----------------------------------------------10--------------
   ------------------------------------------------------------------------


   Outro

    D7sus4
   -3------3--1------1---3-------3---1------1-----------------------------------
   ------1---------1-----------1----------1------------------------------------
   -2--2------2--2-------2---2-------2--2---------------------------------------
   ------------------------------------------------------------------------
   ------------------------------------------------------------------------
   ------------------------------------------------------------------------


  That's about it, enjoy!

  -StratStud-  
		   
AcordesyTabs.com © 2008 Acordes y Tablaturas para guitarra. Tabs and Chords for guitar. Aviso Legal - Contacto
El uso de este sitio está sujeto a la aceptación de los términos y condiciones (43 usuarios online)