tablaturas, partituras y acordes para guitarra
Busca por banda/artista:
 
y/o título de la canción:
A B C D E F G H I J K L M N O P Q R S T U V W X Y Z 0 1 2 3 4 5 6 7 8 9 / Top 100 tabs
Categorías
Usuarios
usuario:
Darse de alta
password:
Artistas más visitados
Publicidad
TOP acordes y tablaturas de Beatles


Estás en: Inicio > Letra B > Acordes y tablaturas de Beatles > Here There And Everywhere
Here There And Everywhere
de Beatles
Puntúa este acorde/tab:      
(0.4/5)
Reportar este acorde/tab
  Añadir a tus favoritos
  Imprimir
Title    : Here, There and everywhere
Artist   : The Beatles
Album    : Revolver
Tabbed by: Noslen_seta 
Date     : 19/july/2003

(You will love it or Hate it ok!!!)


                 HERE, THERE AND EVERYWHERE

                        THE BEATLES

Intro

     G          Bm                Bb                             Am7            
                                                                     ~~~
 E-|-3-----------2--------------|----------------------------|----3---2----|
 B-|-3-----------3--------------|--3-------------------------|----1---1----|
 G-|-0-----------4--------------|--3-------------------------|----2---2----|
 D-|-0-----------4--------------|--3-------------------------|----2---0----|
 A-|-2-----------2--------------|--1-------------------------|--0----------|
 E-|-3--------------------------|----------------------------|-------------|

       to lead a bet-ter life       I need my love to be here.....


 Verse 1
                                                                  
      G              Am             Bm           C                G       Am    
E-|--3-------------------------|-----------------------------|-----3------------
E-|--3-------------------------|-----------------------------|-3----------------

    Here.............             Making each day of the year

      Bm                  C               F#m7             B7

 E-|----------------------------------|-------------------------------|
 B-|----------3------------------5----|-----------2--------------0----|
 G-|----------4------------------5----|-----------2--------------2----|
 D-|------4-----------------5---------|-----------2----------1--------|
 A-|--2----------------3--------------|------4------------2-----------|
 E-|----------------------------------|--2----------------------------|

     changing my life     with the wave    of her hand

      F#m7                B7        Em              Am                 Am7     D

E-|----------------------------|-----------------------------------|---3--3---2-
B-|---------2---------------0--|-----------0-------------1---------|---1--1---1-
G-|---------2---------------1--|-----------0-------------2---------|---2--2---2-

    No - body can    deny             That there's some thing there


Verse 2

                                                                    
      G              Am             Bm           C                G       Am    
                                                                                
E-|--3-------------------------|--------------------------------|-----3---------
G-|--0-----------------2-------|--------4-------------5---------|-----0---------
D-|--0------------2------------|-----4-------------5------------|-----0-------2-
E-|--3-------------------------|--------------------------------|-3-------------

     There.............           Running my hands through her hair



  Bm                  C               F#m7             B7

 E-|----------------------------------|-------------------------------|
 B-|----------3------------------5----|-----------2--------------0----|
 G-|----------4------------------5----|-----------2--------------2----|
 D-|------4-----------------5---------|-----------2----------1--------|
 A-|--2----------------3--------------|------4------------2-----------|
 E-|----------------------------------|--2----------------------------|

    Both of us thinking how  good       it   can    be



   F#m7                B7        Em              Am                 Am7     D7  

 E-|----------------------------|-----------------------------------|---3--3---2
 B-|---------2---------------0--|-----------0-------------1---------|---1--1---1
 G-|---------2---------------1--|-----------0-------------2---------|---2--2---2
 D-|---------2-----------1------|-----------2----------2------------|---2--2---0
 A-|------4----------2----------|------2-----------0----------------|---0-------
 E-|--2-------------------------|---0-------------------------------|-----------

    Some one  is  speaking  but   she doesn't know he's there                   



Chorus
    
     Bb                    Gm                Cm              D7

 E-|--6---6--6--6-------------------3-----|---------------------------2-----|
 B-|--6---6--6--6-------------------34---|---------4-----------------1-----|
 G-|--7---7--7--7-------------------35---|---------5-----------------------|
 D-|--8---8--8----------------------------|------5-----------------2--------|
 A-|--8-------------------------5---------|--3-----------------0------------|
 E-|--6--------------------3--------------|---------------------------------|

      evrywhere                and if      she's beside me I    know i need


     Gm                           Cm               D7                 G    Am

 E-|----------3-------------3--|----------3------------------2------|-3-----3---
 B-|----------3-------------3--|----------4------------------1--0---|-3-----3---
 G-|----------3-------------3--|----------5-------------2-----------|-0-----0---
 D-|----------5-------------5--|------5-------------0---------------|-0-----0---
 A-|------5--------------5-----|-3----------------------------------|-2-----2---
 E-|--3--------------3---------|------------------------------------|-3-----3---
      
     never care                  But to love her    is to meet        Every wher


 Guitar 2 (Elec 12str)

E-|---------------------------|------------------------------------|------------
D-|---------------------------|------------------------------------|------------
A-|---------------------------|------------------------------------|------------
E-|---------------------------|------------------------------------|------------

 
 Guitar 3


E-|---------------------------|------------------------------------|------------
A-|---------------------------|------------------------------------|------------

Verse 3
                                                           
           Bm           C                G       Am               
                                                                                
 E-|--------------------------------|-----3-------------|
 B-|--------3-------------5---------|-----3---------1---|
 G-|--------4-------------5---------|-----0---------2---|
 D-|-----4-------------5------------|-----0-------2-----|
 A-|--2-------------3---------------|---2------0--------|
 E-|--------------------------------|-3-----------------|

    Knowing that love is to share



      Bm                  C               F#m7             B7

 E-|----------------------------------|-------------------------------|
 B-|----------3------------------5----|-----------2--------------0----|
 G-|----------4------------------5----|-----------2--------------2----|
 D-|------4-----------------5---------|-----------2----------1--------|
 A-|--2----------------3--------------|------4------------2-----------|
 E-|----------------------------------|--2----------------------------|
                           
     each one  believing   that love       never   dies 


    F#m7                B7        Em              Am                  Am7       
 
 E-|----------------------------|-----------------------------------|------3----
 B-|---------2---------------0--|-----------0-------------1---------|------1----
 G-|---------2---------------1--|-----------0-------------2---------|------2----
 D-|---------2-----------1------|-----------2----------2------------|---2-----0-
 A-|------4----------2----------|------2-----------0----------------|-0---------
 E-|--2-------------------------|---0-------------------------------|-----------

     Watching   her   eyes        and   hoping  i'm    always         There     



Chorus


     Bb               Gm           Cm           D7          Gm            Cm    

 E-|--------6-------------------|--------------------2----|-------3-----|-------
 B-|--------6-----------------3|--4-----4-----------1--0-|-------3-----|-------
 G-|--------7-----------------3-|--------5---------2------|-------3-----|-------
 D-|--------8-----------------5-|-----5----------0--------|-------5-----|----5--
 A-|----8-------85-------5-----|--3----------------------|----5--------|--3----
 E-|--6----------------3--------|-------------------------|-3-----------|-------

    Everywhere       and if      She'sbeside me I know  I need nevercare Buttolo

  Guitar 2

 E-|----------------------------|-------------------------|-----------------|---
 B-|----------------------------|-------------------------|---3-4-5-6-5-4-3-|-4-
 G-|----------------------------|-------------------------|-0---------------|---
 D-|----------------------------|-------------------------|-----------------|---
 A-|----------------------------|-------------------------|-----------------|---
 E-|----------------------------|-------------------------|-----------------|---

  Guitar 3

 E-|----------------------------|-------------------------|-----------------|---
 B-|----------------------------|---3--4--5--6--5--4--3--4|--4--------------|---
 G-|----------------------------|---0---------------------|-----------------|---
 D-|----------------------------|-------------------------|-----------------|---
 A-|----------------------------|-------------------------|-----------------|---
 E-|----------------------------|-------------------------|-----------------|---



Last verse

     Bm          C           G      Am           Bm      C            F#m7      
                                                                                
 E-|-------2---------5----|------3-------------|--------------------|-------2---
 B-|-------3---------5----|------3----------1--|-----3--------5-----|-------2---
 G-|-------4---------5----|------0----------2--|-----4--------5-----|-------2---
 D-|----4---------5-------|------0-------2-----|---4--------5-------|-------2---
 A-|-2---------3----------|---2-------0--------|-2-------3----------|-----4-----
 E-|----------------------|-3------------------|--------------------|--2--------
 
   Knowing that love is to share              each one believing that love never


    F#m7        B7           Em           Am       Am7    D7        G        Am 
                                                                                
 E-|-------2----------2----|------0-----------0-|--3--3----2--2--|--3--3--------
 B-|-------2----------0----|------0-----------1-|--1--1----1--1--|--3--3--------
 G-|-------2----------2----|------0-----------2-|--2--2----2--2--|--0--0--------
 D-|-------2-------1-------|------2--------2----|--2--2----0--0--|--0---------2-
 A-|-----4------2----------|---2--------0-------|----------------|--2------0----
 E-|--2--------------------|-0------------------|----------------|--3-----------

    Watching her eyes       and hoping im always  There            to be there  




      Bm          C          G       Am       Bm         C          G
                                                                   ~~~
 E-|----------------------|------3---------|---------------------|--3-------|
 B-|-------3-----------5--|--3---3-------1-|------3------5--5--5-|--3-------|
 G-|-------4-----------5--|--0---0-------2-|------4------5--5--5-|--0-------|
 D-|----4-----------5-----|--0---0-----2---|---4---------5--5--5-|--0-------|
 A-|-2-----------3--------|--2------0------|-2-----------3-------|--2-------|
 E-|----------------------|--3-------------|---------------------|--3-------|
                                                    
   and everywhere          Here,    There    and Everywhere.

   Guitar2

 E-|----------------------|----------------|--7----5----3--------|----------|
 B-|----------------------|----------------|----------------5----|--3-------|
 G-|----------------------|----------------|--5----4----5--------|----------|
 D-|----------------------|----------------|----------------5----|--5-------|
 A-|----------------------|----------------|---------------------|----------|
 E-|----------------------|----------------|---------------------|----------|   


    
Lyrics

1st stanza

To lead a better life i need my love to be here.
Here making each day of the year
changing my life with the wave of her hand
nobody can deny that there's something there

2nd stanza

There, running my hands trough her hair 
both of us thingking how good it can be
someone is speaking but she doesn't know he's there

Chorus: 

I want her everywhere
and if she's beside me i know i need never care
but to love her is to meet her everywhere 

3rd staza

Knowing that love is to share 
each one believing that love never dies
Watching her eyes and hoping im always there

(repeat chorus and 3rd stanza)

To be there and everywhere,
Here there and everywhere.




I think my tab is almost perfect just try it ok. 
if there is any comments just email me ok ok ok


Now its all done hehehe enjoy it have a good day.                            

 --------------------------------------------------------------------------- 
|                                        |                                 |
|                   >>>>o                |  (smith)      /      _0/      |
|                                        |      /      _|         /     |
|    0_       >>>o              >>>o     |       //                      |
|   /|               _                 |              (neo)        (smith)|
|   /    >>>o       \ >>>0            |                                  |
|                                        |    0/                 _        |
|                                        |   //                   /         |
|            >>>0                        |   /                  \         |
|                                        |  (smith)              (smith)    |   
 ---------------------------------------------------------------------------   
            (MATRIX)                           (MATRIX RELOADED)        




Noslen_Seta@Yahoo.com
		   
AcordesyTabs.com © 2008 Acordes y Tablaturas para guitarra. Tabs and Chords for guitar. Aviso Legal - Contacto
El uso de este sitio está sujeto a la aceptación de los términos y condiciones (42 usuarios online)