tablaturas, partituras y acordes para guitarra
Busca por banda/artista:
 
y/o título de la canción:
A B C D E F G H I J K L M N O P Q R S T U V W X Y Z 0 1 2 3 4 5 6 7 8 9 / Top 100 tabs
Categorías
Usuarios
usuario:
Darse de alta
password:
Artistas más visitados
Publicidad
TOP acordes y tablaturas de Shades Apart


Estás en: Inicio > Letra S > Acordes y tablaturas de Shades Apart > Stranger By The Day
Stranger By The Day
de Shades Apart
Puntúa este acorde/tab:      
(0.4/5)
Reportar este acorde/tab
  Añadir a tus favoritos
  Imprimir
Hey I didn't see any shades here so ill put a few by them
starting with stranger by the day.  I only have the beginning
and solo for now...ill get the chorus's and what not ASAP.

Beginning
E----------------------------------------
B----------------------------------------
G----------------------------------------
D---4--4----411--11---11/--9---9----9-----------------
A---2--2----2-9---9----9/--7---7----7--------------
E----------------------------------------
repeat a few times

Ending Solo(acoustic)
E---------------------------------------
B------------4-7-5--5-4-5-4-----------------5-4-
G------3-5-6----------------6-5-3------3-5-6-----
D--6------------------------------4-6------
A---------------------------------------
E---------------------------------------

E-------------------------------------------
B--5-4----------------------------------------
G------6-5-3-----------------------------------
D------------46v--------------------------------
A--------------------------------------------
E-------------------------------------------

Its pretty easy I'll have the electric/middle of song soon
Im goin to Guitar Center to pick up my Telecaster =P
Have Fun and you havent heard the last of me for shades!

Any questions or anything at all...e-mail me at BronxBomberzNYY@aol.com
		   
AcordesyTabs.com © 2008 Acordes y Tablaturas para guitarra. Tabs and Chords for guitar. Aviso Legal - Contacto
El uso de este sitio está sujeto a la aceptación de los términos y condiciones (44 usuarios online)