tablaturas, partituras y acordes para guitarra
Busca por banda/artista:
 
y/o título de la canción:
A B C D E F G H I J K L M N O P Q R S T U V W X Y Z 0 1 2 3 4 5 6 7 8 9 / Top 100 tabs
Categorías
Usuarios
usuario:
Darse de alta
password:
Artistas más visitados
Publicidad
TOP acordes y tablaturas de Silverchair


Israels Son
de Silverchair
Puntúa este acorde/tab:      
(0.5/5)
Reportar este acorde/tab
  Añadir a tus favoritos
  Imprimir
This is 100% correct. 
This is the simpliest song to play in the world.  I figured it out in 
5 minutes.
All guitars in tune.

repeat 4 times
1-------------------------
2-------------------------
3-------------------------
4-------------------------
5---0--0--4-3-----0---3--5
6---0--0--4-------0---3---

repeat 3 times
1----------------------
2----------------------
3----------------------
4----------------------
5--0--0--5--3---0--2--3
6--0--0--5--3---0--2--3


1-----------------
2-----------------
3-----------------
4-----------------
5-1-1-1-1--6-6-6-6
6-1-1-1-1--6-6-6-6
		   
AcordesyTabs.com © 2008 Acordes y Tablaturas para guitarra. Tabs and Chords for guitar. Aviso Legal - Contacto
El uso de este sitio está sujeto a la aceptación de los términos y condiciones (21 usuarios online)