tablaturas, partituras y acordes para guitarra
Busca por banda/artista:
 
y/o título de la canción:
A B C D E F G H I J K L M N O P Q R S T U V W X Y Z 0 1 2 3 4 5 6 7 8 9 / Top 100 tabs
Categorías
Usuarios
usuario:
Darse de alta
password:
Artistas más visitados
Publicidad
TOP acordes y tablaturas de Silverchair


Estás en: Inicio > Letra S > Acordes y tablaturas de Silverchair > Suicidal Dream
Suicidal Dream
de Silverchair
Puntúa este acorde/tab:      
(0.5/5)
Reportar este acorde/tab
  Añadir a tus favoritos
  Imprimir
Suicidal Dream - silverchair

This is one kick ass song.

Standard Tuning
Intro/Verse                                     Pre-Verse
e ---------------------------------------------------0-----------
b -----------------------------------------------------0ring-----
g ---------4-----4---------4-----4-------------------------------
d -------4-----4---4-----4-----4-----4---------------------------
a ---0-2---------------------------0-----------------------------
e -----------3-------3-0-----2---------repeat--------------------
Chorus
e -----2-----2---0-------0--3---3--3--0------2-----2-0---0--3--3-
b -----3-----2---0-------0--3---3--3--0------3-----2-0---0--3--3-
g -----4-----3---0-------0--0---0--0--0------4-----3-0---0--0--0-
d --4-----4-----------2-----0-------------4-----4------2----0----
a --2-----4-----------2-----2-------------2-----4------2----2----
e --------2-----------0-----3-------------------2------0----3----
  My suicidal dream, voices telling me what to do
e --3-0----2-----2--0----0--3--3-3-0----2-----2-0-----0--3-------
b --3-0----3-----2--0----0--3--3-3-0----3-----2-0-----0--3-------
g --0-0----4-----3--0----0--0--0-0-0----4-----3-0-----0--0-------
d -------4----4--------2----0---------4----4-------2-----0-------
a -------2----4--------2----2---------2----4-------2-----2-------
e ------------2--------0----3--------------2-------0-----3-------
   My suicidal dream, I'm sure you will get yours too
Bridge 2 guitars
Gtr. 1
e ---------------------------------------------------------------
b ---------------------------------------------------------------
g ---4---------------7--6----------------------------------------
d ------7--4--5---4--------7--4----------------------------------
a ---------------------------------------------------------------
e ---------------------------------------------------------------
Gtr. 2
e ---------------------------------------------------------------
b ------3-----------------------------3----3---------------------
g --4---2----0-------------------4----2----2----0----------------
d --4---0----0---5----4----------4----0----0----0----------------
a --2---0--------5----4-----0----2----0----0---------------------
e --2------------3----2-----0----2-------------------------------
Gtr. 1
e ---------------------------------------------------------------
b ---------------------------------------------------------------
g ---------------------------------------------------------------
d ---------------------------------------------------------------
a ---4----4/5----4----0-----2------------------------------------
e ---------------------------------------------------------------
Gtr. 2
e ---------------------------------------------------------------
b ---------------------------3-----3-----------------------------
g -----------------0----4----2-----2-----------------------------
d --5---4-----4----0----4----0-----0---------5-5-5--4--4--4------
a --5---4-----4---------2----0-----0----0-0--5-5-5--4--4--4--0---
e --3---2-----2---------2---------------0-0--3-3-3--2--2--2--0---
Outro
e --2--2--2--2--2--2--2---0--0--0--0--0---3--3--3--0-0-3--2------
b --3--3--3--2--2--2--2---0--0--0--0--0---3--3--3--0-0-3--3------
g --4--4--4--3--3--3--3---0--0--0--0--0---0--0--0--0-0-0--4------
d --4--4--4--4--4--4--4---2--2--2--2--2---0--0--0--2-2-0--4------
a --2--2--2--4--4--4--4---2--2--2--2--2---2--2--2--2-2-2--2------
e -----------2--2--2--2---0--0--0--0--0---3--3--3--0-0-3---------

Song Structure
Intro
Verse 1
Chorus
Verse 2
Chorus
Bridge
Chorus
Outro

Comments - JesusPnkr@aol.com
		   
AcordesyTabs.com © 2008 Acordes y Tablaturas para guitarra. Tabs and Chords for guitar. Aviso Legal - Contacto
El uso de este sitio está sujeto a la aceptación de los términos y condiciones (21 usuarios online)