tablaturas, partituras y acordes para guitarra
Busca por banda/artista:
 
y/o título de la canción:
A B C D E F G H I J K L M N O P Q R S T U V W X Y Z 0 1 2 3 4 5 6 7 8 9 / Top 100 tabs
Categorías
Usuarios
usuario:
Darse de alta
password:
Artistas más visitados
Publicidad
TOP acordes y tablaturas de Silverchair


Estás en: Inicio > Letra S > Acordes y tablaturas de Silverchair > Tomorrow Solo
Tomorrow Solo
de Silverchair
Puntúa este acorde/tab:      
(0.1/5)
Reportar este acorde/tab
  Añadir a tus favoritos
  Imprimir

SOLO

e-------------------------------------------------------------------------------
B--------------------8-5--------------------------------------------------------
G------55-----5h7-5------7-5-8^---8^--8^--8^--8^7-5-7-5------------------------
D----7---7p5h7--------------------------------------------7-5-7-5-7----------5h7
A------------------------------------------------------------------5-5-5h7------
E-------------------------------------------------------------------------------

e--12^---12^--------------------------------------------------------------------
B--------12^--12/10--12-10-8--12-10-12-10-12^~---1012^-1012^-1012^-12-10--------
G------------------------------------------------------------------------12-10--
D-------------------------------------------------------------------------------
A-------------------------------------------------------------------------------
E-------------------------------------------------------------------------------

e------------------------------------------
B------------------------------------------
G--12----12----12----12--------------------
D-----12----12----12------12---10----------
A----------------------------------12~-----
E------------------------------------------
		   
AcordesyTabs.com © 2008 Acordes y Tablaturas para guitarra. Tabs and Chords for guitar. Aviso Legal - Contacto
El uso de este sitio está sujeto a la aceptación de los términos y condiciones (25 usuarios online)