tablaturas, partituras y acordes para guitarra
Busca por banda/artista:
 
y/o título de la canción:
A B C D E F G H I J K L M N O P Q R S T U V W X Y Z 0 1 2 3 4 5 6 7 8 9 / Top 100 tabs
Categorías
Usuarios
usuario:
Darse de alta
password:
Artistas más visitados
Publicidad
TOP acordes y tablaturas de Silverchair


Tomorrow
de Silverchair
Puntúa este acorde/tab:      
(0.3/5)
Reportar este acorde/tab
  Añadir a tus favoritos
  Imprimir
#----------------------------------PLEASE NOTE---------------------------------#
#This file is the author's own work and represents their interpretation of the #
#song. You may only use this file for private study, scholarship, or research. #
#------------------------------------------------------------------------------#


From: engdm@ix.netcom.com
Date: Thu, 16 Nov 95 04:01:28 GMT
 
Tomorrow by Silverchair

tabbed by Evan Mead
engdm@ix.netcom.com

 This is a great song of the frogstomp album.  The other tabs where way off
so i decided to post an accurate version of the song.

normal tunning
 Intro
   A                              D                   
e---------0--------------0--------------3-2---------------------------
    b-----------2--------------2----------------3-------------------------
    g---------------2--------------0----2---------2--------0-----0--------
    d----2--------2----2--2------2----0---0---------0----0-----0------0---
    a--0---0-----------0----0--------------------------3-----2------------
    E--------------------------------------------------------------3------
> >

>  1st verse

> I didn't include strumming pattern, but it isn't hard to figure out.
gtr. 1 electric with a little bit of dist.
           A          G        D                    
e----------0----------3--------2----------------------/
b----------2----------3--------3----------------------/
g----------2----------0--------2----------------------/
d----------2----------0--------0----------------------/
a----------0----------2--------0-----3---0----------/
E---------------------3-------------------------3-----/

gtr 2 mucho distortion
                
e----------------------------------------------
b-------2-----4-----5--------------------------
g-------2-----4-----5---------------------5----
d-------2-----4-----5-------------5---7------5-
a-------0-----2-----3-------5---7--------------
>   E-------------2-----3-----------------------------/

gtr. 1 clean electric

    e---5--5----10--12--10--------------8--8---10--12--10-------------
    b---5--5----10---------10-12-10-----8--8---10---------10-12-10----
    g---6--6----11------------------11--9--9---12------------------11-
    d-----------------------------------------------------------------
    a-----------------------------------------------------------------
    E-----------------------------------------------------------------

 chorus
gtr. 2 DISTORTION
> >
>   e---------------------------------------------------------------------      
>   b-------2------------------------2------------------------------------
g-------2-------7----5-----7-----2---7---5-5-5-5---7-7-7-7--7-7-------
d-------2-------7----5-----7-----2---7---5-5-5-5---7-7-7-7--7-7-------
a-------0-------5----3-----5-----0---5---3-3-3-3---5-5-5-5--5-5-------
E---------------5----3-----5---------5---3-3-3-3---5-5-5-5--5-5-------

Well that's except for the solo.  Email me if you want the solo.  Send
questions, comments and requests to engdm@ix.netcom.com




TOMORROW by silverchair
Transcribed by Braamo (bpsmith@socs.uts.edu.au)

Introduction
      C  D  G  A
E---------0-------------0------------3-2------0--2--3--0|
B-----------2---2---------2---2----------3----1--3--0--2|
G-------------2-------------2------2----------0--2--0--2|
D-----2-------------2------------0------------2--0--0--2|
A---0---0---------0---0-----------------------3-----2--0|
E---------------------------------------------------3---|

Verse Chords: A / / / G / D / C G A repeated until over-drive sets in:

    A     G     D  C   G 
The water out of the tap is very .... hot to

   A               B    C
 drink....Very hot to drink

Following each C chord in this leadin to the chorus, this riff is played:

E-------------------------|
B-------------------------|Parentheses indicate hammering
G--------------3-(5)-0-2--|
D--------3-(5)------------|
A--3-(5)------------------|
E-------------------------|

This riff is closely followed by the A chord in the next series of  
chords whether its the A-B-C of the leadin or the chorus itself (A-D-C-D) 
after the second verse.The exception being in the first verse where the
song goes into a soft interlude:

E---5-5-10--12-10-----------8-10--12-10----------|
B---5-5-10--------10-12-10--8-10--------10-12-10-|
G------------------------------------------------|
D------------------------------------------------|
A------------------------------------------------|
E------------------------------------------------|

As mentioned above, the chorus is simply A to D to C and back to D.

And thats the whole song:

Intro
Verse 1
Louder Leadin
Soft Interlude
Loud Chorus
Soft Verse 2
Loud Leadin
Chorus
Solo
Chorus

Solo:

E-----------------------------------------------|
B----------------------5-8-5--------------------|
G--------5---------5-7-------5-7^-8-8-8-8-7-5---|
D--5-(7)---5-(7)--------------------------------|
A-----------------------------------------------|
E-----------------------------------------------|

E-----------------------------------------------|
B-----------------------------------------------|
G--7^-7-7-5-7--5^-------------------------------|
D-----------------7-5-7^-----------5-(7)-7------|
A------------------------5-5-5-(7)--------------|
E-----------------------------------------------|

E--12^-12^----------------------------------------------|
B------12^-10-(12)-12^-10-12^-10------10-12^-12-12^-12^-|
G--------------------------------(12)-------------------|
D-------------------------------------------------------|
A-------------------------------------------------------|
E-------------------------------------------------------|

E--12-----------------------------------------|
B--12-10----10^-------------------------------|
G--------12-----------------------------------|
D---------------12^-12-10---------------------|
A--------------------------12-----------------|
E---------------------------------------------|

E---------------------------------------------|
B---------------------------------------------|
G-----12----12----12----12--------------------|
D--12----12----12----12----12^-10-------------|
A---------------------------------12----------|
E---------------------------------------------|


Braamo

(bpsmith@socs.uts.edu.au)

Date: 4 Oct 1995 14:01:19 -0400
From: scot2b12@aol.com (Scot2B12) (by way of arabella@mail.utexas.edu (Arabella 
Subject: TAB-Silverchair's Tomorrow

     Ok, let's try this posting again. Sorry it got messed up the first
time.

     This starts out with a G chord, leave your 3rd and 4th fingers, at
the 3rd fret, on the 1st and 2nd strings, for the whole thing.

-----------3------------------3---------
----3---3---3---3----3---3---3----3-
-------0-------0---------0--------0---
--------------------------------------
---------------------------------------
-3-------------------1------------------ 


----------3---------------------------
---3---3---3---3---3---3-----------
-----0--------0--------0------0----0
---------------------------------------
-3-----------------1--------1----2--
---------------------------------------


                     Scottie


Date: Fri, 18 Apr 1997 22:43:53 -0700
From: "John H. Fogt" 

"Tomorrow"
by Silverchair
off their debut album "Frogstomp"
transcribed by Paul Fogt
unity@blader.com

Intro
    AG
e--------------------------3-------------------
B-----5--------5------------3------------------
G------6--------6------------------------------
D---7---7----7---7-------5---------------------
A----7--------7-----------5--------------------
E--5--------5-----------3----------------------

Verse
A-G-C-F

Solo (play 2X)
e---5-5-10-10-12-----------3-3-8-8-10----------
B---5-5-10-------10-12-10--3-3-8------8-10-8---
G----------------------------------------------
D----------------------------------------------
A----------------------------------------------
E----------------------------------------------

Other than that everything's pretty easy (except the bassline)
		   
AcordesyTabs.com © 2008 Acordes y Tablaturas para guitarra. Tabs and Chords for guitar. Aviso Legal - Contacto
El uso de este sitio está sujeto a la aceptación de los términos y condiciones (7 usuarios online)