tablaturas, partituras y acordes para guitarra
Busca por banda/artista:
 
y/o título de la canción:
A B C D E F G H I J K L M N O P Q R S T U V W X Y Z 0 1 2 3 4 5 6 7 8 9 / Top 100 tabs
Categorías
Usuarios
usuario:
Darse de alta
password:
Artistas más visitados
Publicidad
TOP acordes y tablaturas de Hendrix jimi


Hey joe
de Hendrix jimi
Puntúa este acorde/tab:      
(0.3/5)
Reportar este acorde/tab
  Añadir a tus favoritos
  Imprimir

Hey Joe_Jimi Hendrix
Produced by Kirk Taylor 
Any questions don’t ask cause its write!
My very first one!




------0---0----0-----------------3----------------------------------------
------5---3----0-----------------3----------------------------------------
----------------------2/0---------1----------------------------------------
-----------------------------------0------0------0-----0------0----0-----
-----------------------------------2------4/5----5-----4/5---5----4/5----


                                                                           C             G 
------3------0---0---0------------------------------------0--------------3
------3------5---3---0------------------------------------1--------------0
------1---------------------2/0----------------------------0--------------0
------0---------------------------------------------2-----------------------
------2------------------------------------------3-------------------2-----
--0----------------------------------------------------------------3--------



                 D                     A
-----------------2---------------0--------------------3----------------------
-----------------3---------------2--------------------3----------------------
------------2--------------------2--------------------1----------------------
------0---------------------2-------------------------0-----------0---------0
-------------------------0----------------------------2---- 0/2---------0/2-----0/2
-




-------3---------0----0-----0----------/----------------/------3------------------
-------3---------5----3-----0----------/----------------/------3---------7--------7
-------1--------------------------2/0--/-----------------/------1---------7--------7
-------0--------------------------------/----C,G,D,A--/------0---7/9------7/9---
-------2--------------------------------/-----------------/------2-------------------
--0-------------------------------------/-----------------/--0-----------------------




--------------3------------0----0---0-------------------------------------------------
--------------3------------5----3---0-------------------------------------------------
--------------1--------------------------2/0-------------------------------------------
--7/9--------0-------------------------------------------------------------------------
--------------2-------------------------------------3---------- 2345-------------456/7
--------0-----------------------------------------------0123------------2345--


		   
AcordesyTabs.com © 2008 Acordes y Tablaturas para guitarra. Tabs and Chords for guitar. Aviso Legal - Contacto
El uso de este sitio está sujeto a la aceptación de los términos y condiciones (22 usuarios online)