tablaturas, partituras y acordes para guitarra
Busca por banda/artista:
 
y/o título de la canción:
A B C D E F G H I J K L M N O P Q R S T U V W X Y Z 0 1 2 3 4 5 6 7 8 9 / Top 100 tabs
Categorías
Usuarios
usuario:
Darse de alta
password:
Artistas más visitados
Publicidad
TOP acordes y tablaturas de Six Feet Under


War Machine
de Six Feet Under
Puntúa este acorde/tab:      
(0.2/5)
Reportar este acorde/tab
  Añadir a tus favoritos
  Imprimir
WAR MACHINE

of the cd "maximum violence"

intro
1)-----------------------------------------------------------
2)-----------------------------------------------------------
3)-----------------------------------------------------------
4)-----------------------------------------------------------
5)-----------------------------------------------------------
6)-0-7--0-5--0-7--0-5-0-3-5--0-7--0-3--0-5--0-5-0-3-5- repeat 4 times (i think)

4)---
5)-2-
6)-0- (let ring four 4 beats)

1)------------------------------------------------
2)------------------------------------------------
3)------------------------------------------------
4)------------------------------------------------
5)-5-7-9-9979-X-X-9999-7-7-2242-X-2-2-22----------
6)-3-5-7-7757-X-X-7777-5-5-0030-X-0-0-00----------
p.m.                              -   --             

4)-------------------
5)-9---9-7---7-2----
6)-7---7-5---5-0----

1)------------------------------------------------
2)------------------------------------------------
3)------------------------------------------------
4)------------------------------------------------
5)-5-7-9-9979-X-X-9999-7-7-2242-X-2-2-22----------
6)-3-5-7-7757-X-X-7777-5-5-0030-X-0-0-00----------
p.m.                              -   --

chorus
1)-----------------------------------------------------------
2)-----------------------------------------------------------
3)-----------------------------------------------------------
4)-----------------------------------------------------------
5)-2-9--2-7--2-9--2-7-2-5-7--2-9--2-5--2-7--2-7-2-5-7--------
6)-0-7--0-5--0-7--0-5-0-3-5--0-7--0-3--0-5--0-5-0-3-5--------

i don't know the solo let, but i'll tab it at a later date

~Brandon 
		   
AcordesyTabs.com © 2008 Acordes y Tablaturas para guitarra. Tabs and Chords for guitar. Aviso Legal - Contacto
El uso de este sitio está sujeto a la aceptación de los términos y condiciones (14 usuarios online)