tablaturas, partituras y acordes para guitarra
Busca por banda/artista:
 
y/o título de la canción:
A B C D E F G H I J K L M N O P Q R S T U V W X Y Z 0 1 2 3 4 5 6 7 8 9 / Top 100 tabs
Categorías
Usuarios
usuario:
Darse de alta
password:
Artistas más visitados
Publicidad
TOP acordes y tablaturas de Alice in chains


No excuses
de Alice in chains
Puntúa este acorde/tab:      
(0.3/5)
Reportar este acorde/tab
  Añadir a tus favoritos
  Imprimir
     Verse                                                                      
|-------------------------------------------------
|----------9/11-9---------------------------------
|------------------9-7-7-9------------------------
|----7-7------------------------------------------

He throws in this variation 2 or 3 times

|--------------------9-8----------------------------
|----------9/11-9---------9-7-9---------------------
|---------------------------------------------------
|----7-7--------------------------------------------


     Chorus                                                                 
|------------------------------------------
|------------------------------------------
|------------------------------------------
|----3--3--3--2--0--5--5--5--0--5--0--5--0-
                                                       
|------------------------------------
|------------------------------------
|------------------------------------
|-7--7--7--7--5--7--7--7--7--7--7--5-

|------------------------------------------
|------------------------------------------
|------------------------------------------
|----3--3--3--2--0--5--5--5--5--5--5--5--7-
                                                                      
|---------------------------------------
|---------------------------------------
|-------------------------------------2-
|-0--0--0--0--0--0--0--0--0--0--0--5----		   
AcordesyTabs.com © 2008 Acordes y Tablaturas para guitarra. Tabs and Chords for guitar. Aviso Legal - Contacto
El uso de este sitio está sujeto a la aceptación de los términos y condiciones (60 usuarios online)