tablaturas, partituras y acordes para guitarra
Busca por banda/artista:
 
y/o título de la canción:
A B C D E F G H I J K L M N O P Q R S T U V W X Y Z 0 1 2 3 4 5 6 7 8 9 / Top 100 tabs
Categorías
Usuarios
usuario:
Darse de alta
password:
Artistas más visitados
Publicidad
TOP acordes y tablaturas de Slipknot


Eeyore
de Slipknot
Puntúa este acorde/tab:      
(0.6/5)
Reportar este acorde/tab
  Añadir a tus favoritos
  Imprimir
Eeyore

Tuning (low to high) BF#BE
The bits with ** underneath are palm muted.
This looks disjointed as I'm doing it from 
memory
Email me with any complaints.
emfusionuk@yahoo.co.uk


E  -4445---4445---4445---4445---4445---4445-
B  -0003---0003---0003---0003---0003---0003-
F# -----------------------------------------
B  -----------------------------------------

E  -4445---4445---4445---4445---4445---4445-
B  -0003---0003---0003---0003---0003---0003-
F# -----------------------------------------
B  -----------------------------------------

E  ------------------------------------------
B  -777777777777777-33333-222222-777777777777
F# -777777777777777-33333-222222-777777777777
B  -777777777777777-33333-222222-777777777777 

E  --------------
B  -33333-222222- 
F# -33333-222222-
B  -33333-222222-

E  ---------------------------
B  ---------------------------  Play this 7
F# ---------------------------    times
B  -77777777777777-33333-22222

E  -------------------------------------------
B  -0----------------------0-----------------3
F# -0----------------------0--------------5-3-
B  -0-00000000-3p0-3p0-3p0-0-0000000000-3-----
      ********               **********

E  -------------------------------------------
B  -0----------------------0-----------------3
F# -0----------------------0--------------5-3-
B  -0-00000000-3p0-3p0-3p0-0-0000000000-3-----
      ********               **********

E  -----------------
B  ---------------3-
F# -----------5-3---
B  ---------3-------

E  ----------------------------------
B  -0-----3p0-3p0-3p0-3p0----------3-
F# -0-00--3p0-3p0-3p0-3p0-00---5-3---
B  -0-00--3p0-3p0-3p0-3p0-00-3-------
      **                  **

E  ----------------------------------
B  -0-----3p0-3p0-3p0-3p0----------3-
F# -0-00--3p0-3p0-3p0-3p0-00---5-3---
B  -0-00--3p0-3p0-3p0-3p0-00-3-------
      **                  **

E  ------------------------------------------
B  -777777777777777-33333-222222-777777777777
F# -777777777777777-33333-222222-777777777777
B  -777777777777777-33333-222222-777777777777 

E  --------------
B  -33333-222222- 
F# -33333-222222-
B  -33333-222222-

E  ------------------------------------------
B  -777777777777777-33333-222222-777777777777
F# -777777777777777-33333-222222-777777777777
B  -777777777777777-33333-222222-777777777777 

E  --------------
B  -33333-222222- 
F# -33333-222222-
B  -33333-222222-

E  ------------------------------------------
B  -777777777777777-33333-222222-777777777777
F# -777777777777777-33333-222222-777777777777
B  -777777777777777-33333-222222-777777777777 

E  --------------
B  -33333-222222- 
F# -33333-222222-
B  -33333-222222-

E  ------------------------------------------
B  -777777777777777-33333-222222-777777777777
F# -777777777777777-33333-222222-777777777777
B  -777777777777777-33333-222222-777777777777 

E  --------------
B  -33333-222222- 
F# -33333-222222-
B  -33333-222222-

E  ------------------------------------------
B  --0000000-1-0000000000-1-000000000-1---0--
F# --0000000-1-0000000000-1-000000000-1---0--
B  --0000000-1-0000000000-1-000000000-1---0--
		   
AcordesyTabs.com © 2008 Acordes y Tablaturas para guitarra. Tabs and Chords for guitar. Aviso Legal - Contacto
El uso de este sitio está sujeto a la aceptación de los términos y condiciones (9 usuarios online)