tablaturas, partituras y acordes para guitarra
Busca por banda/artista:
 
y/o título de la canción:
A B C D E F G H I J K L M N O P Q R S T U V W X Y Z 0 1 2 3 4 5 6 7 8 9 / Top 100 tabs
Categorías
Usuarios
usuario:
Darse de alta
password:
Artistas más visitados
Publicidad
TOP acordes y tablaturas de Smashing Pumpkins


Estás en: Inicio > Letra S > Acordes y tablaturas de Smashing Pumpkins > Behold The Nightmare
Behold The Nightmare
de Smashing Pumpkins
Puntúa este acorde/tab:      
(0.4/5)
Reportar este acorde/tab
  Añadir a tus favoritos
  Imprimir
artist: smashing pumpkins
song: behold! the nightmare
album: adore

tuning: open Dminor (low to high) D, A, D, F, A, D

intro: just stay on the same chord for about four bars I think

----2----------0-------------------------------------------------------0--------
----0----------0-------------------------------------------------------0--------
----1----------2-------------------------------------------------------1--------
----0----------4-------------------------------------------------------0--------
----0----------4-------------------------------------------------------0--------
----0----------4-------------------------------------------------------0--------
                            "I've faced the fathoms in your deep"               

-----0------0------------------------------------------0------------------------
-----0------0------------------------------------------0------------------------
-----1------2------------------------------------------x------------------------
-----0------4------------------------------------------4------------------------
-----0------4------------------------------------------5------------------------
-----0------4------------------------------------------5------------------------
                  "pulled down the heavens just to please you, appease you the w

-----0------------0-------------------------------------------------------------
-----0------------0-------------------------------------------------------------
-----8------------2-------------------------------------------------------------
-----7------------2-------------------------------------------------------------
-----7------------2-------------------------------------------------------------
-----7------------2-------------------------------------------------------------
                                 play these two chords over and over until:

----0-----------------------
----0-----------------------
----x-----------------------
----4-----------------------
----5-----------------------
----5-----------------------
  "the coarse tide reflects sky and the"

----2-----------0-------x------x------------------------------------------------
----0-----------0-------4------4------------------------------------------------
----1-----------1-------1------4------------------------------------------------
----0-----------0-------0------2------------------------------------------------
----0-----------0-------0------x------------------------------------------------
----0-----------0-------0------4------------------------------------------------
  "night-mare    rides     on"                  play x4

-----0---------
-----0---------
-----x---------
-----4---------
-----5---------
-----5---------
  "what I fear, is lost here, the wind blows, and I know"

time signature change, to 6/8

--------------------------------------------------------------------------------
---------0--------0-------0-------0--------0-----------0------0-----------------
-----1---------2--------4------3-------2------2----6---------------------------
--------------------------------------------------------------5-----------------
--------------------------------------------------------------------------------
--0---------2--------4---------3-------2------------5---------------------------
 play this through once and then repeat with the lyrics
"all you have to do, is run away and steal, yourself from me, become a mystery
to gaze into"
-------------------------------------------------------------------------------
-------------------------0-----------------------------------------------------
----8------4---6----6----6--------------------------------------------------
--------------------0----------0-----------------------------------------------
--------------------------------------------------------------------------------
----7------4---5--------------------------------------------------------------
                                                 x2
"your so cruel, in all you do"
-------------------------------------------------------------------------------
-------------------------------------------------------------------------------
---8-----4----6------4--3--2-----------------------------------------------
---x-----x----x-------x--x--x------------------------------------------------
---7-----4----5------4--3--2------------------------------------------------
---7-----4----5------4--3--2------------------------------------------------

"but still I believe, I believe, you"

time signature change back to 4/4

-----0----------0-----------------------------
-----0----------0-----------------------------
-----1----------2-----------------------------
-----0----------2-----------------------------
-----0----------2-----------------------------
-----0----------2-----------------------------  just these two chords back and f
I can't be bothered to transcribe the guitar solo, but I will tell you that it i
1/4 tone below standard pitch, with the maximum signal level you can possibly ge

next is
--------0---------------------
--------0---------------------
--------6---------------------
--------4---------------------
--------x---------------------
--------5---------------------
"so may you come with your own knives, you'll never take me alive
with all the force of what is true, is there nothing I can do"

---0-----0-----------------
---0-----0-----------------
---8-----2-----------------
---7-----2-----------------
---7-----2-----------------
---7-----2-----------------these two back and forth again

and repeat this until the end

-----2-----0-----x----x---------------------------
-----0-----0-----4----4---------------------------
-----1-----1-----1----4---------------------------
-----0-----0-----0----2---------------------------
-----0-----0-----0----x---------------------------
-----0-----0-----0----4---------------------------

		   
AcordesyTabs.com © 2008 Acordes y Tablaturas para guitarra. Tabs and Chords for guitar. Aviso Legal - Contacto
El uso de este sitio está sujeto a la aceptación de los términos y condiciones (25 usuarios online)