tablaturas, partituras y acordes para guitarra
Busca por banda/artista:
 
y/o título de la canción:
A B C D E F G H I J K L M N O P Q R S T U V W X Y Z 0 1 2 3 4 5 6 7 8 9 / Top 100 tabs
Categorías
Usuarios
usuario:
Darse de alta
password:
Artistas más visitados
Publicidad
TOP acordes y tablaturas de Smashing Pumpkins


By Starlight
de Smashing Pumpkins
Puntúa este acorde/tab:      
(0.3/5)
Reportar este acorde/tab
  Añadir a tus favoritos
  Imprimir
#----------------------------------PLEASE NOTE---------------------------------#
#This file is the author's own work and represents their interpretation of the #
#song. You may only use this file for private study, scholarship, or research. #
#------------------------------------------------------------------------------#
Date: Thu, 7 Dec 1995 00:11:52 -0500 (EST)
From: Richard Clay Santos 
Subject: By Starlight TAB


"By Starlight" is from the CD Mellon Collie and the Infinite Sadness
Written by William Corgan Jr.
Performed by The Smashing Pumpkins
Tabbed by Rich Santos of Baltimore Md.

Here is a tab. of 'By Starlight'. I've been waiting and waiting for 
someone else to do it, but no one did so.... This is the first song I've 
ever tabbed besides "Ride It On" by Mazzy so I hope it's close. This song 
is beautiful, quite "Lunaesque". It has some effects that make me think 
there may be some 
keyboard on that swelling part that the song fades in with. During the 
verses, you can play any high string of the chord and it will sound nice. I 
didn't tab every little fill, but it's a pretty open song so...have fun:


Chords come in with

D   A   C   G

All effects cut off-

(D) By starlight I'll (A) kiss you and (C) promise to (G) be your one and 

(D) only.

I'll make you feel (A) happy (C) and leave you to (G) be lost in my eyes.

(Dii) And where do we (Aii) go?

(Cii) What do we do (Gii)

Soon said (A) I....We'll (D) know.

RIFF 1-

----------------------------------------------------------
----------------------------------------------------------
----------------------------------------------------------
-----4/7----4/7----9--7--5--4----4/7---4/7---9--7--5--4--7
------------------------------5---------------------------
----------------------------------------------------------
Dead eyes, Dead eyes are you just like me?......Vacant as the sea...

(D) Dead eyes, (A) Dead eyes, (C) Are you just like (G) me?
(D) Her eyes, (A) Her eyes (C) were as vacant as the (G) sea..yeah
(D) Dead eyes, (A) Dead eyes (C) Are you just like (G) me?

sounds in........

(G) And all (A) along, we (C) knew we'd carry (G) on,
(C) Just to (A) belong.....

(D) By starlight I (A) know you as (C) lonely as a (G) wish granted
(D) true. My life has been (A) empty, my (C) life has been un(G)true...

sounds in ........

(G) does she really (A) know (C) who I really (G) am?
Does she really (A) know me?..........piano....

At (D)last................

RIFF 1 

(A) (C) Are you just like (G) me

RIFF 1 With Same Chords as before:

Dead eyes, Dead eyes are you just like me?
Her eyes, here eyes were as vacant as the seas, yeah.
Dead eyes, dead eyes are you just like me?

And are you just like me?

Repeat D-A-C-G chord progression underneath with sounds and later add 
this riff which I'm not too sure about:

------------------------------------------------------------------------------
------------------------------------------------------------------------------
------------------------------------------------------------------------------
------------------------------------------------------------------------------
-------5--5/7--5-------5/7--5-------3--3--5/7-------------------------3--3----
------------------5--5---------------------------5---3----3-3/5---5-----------

Well there it is...I hope it helps..comments, corrections are welcome. 
Chords below:

D      A      C      G     D(ii)   A(ii)    C(ii)   G(ii)
-5-   -X-    -3-    -3-    -3-     -X-      -3-     -X-
-7-   -X-    -5-    -3-    -5-     -3-      -5-     -3-
-7-   -6-    -5-    -4-    -5-     -4-      -5-     -4-
-7-   -7-    -5-    -5-    -O-     -5-      -5-     -5-
-5-   -7-    -3-    -5-    -X-     -5-      -X-     -5-
-X-   -5-    -X-    -3-    -X-     -X-      -X-     -X-
  

E mail = Cicada@strauss.udel.edu

 





Correction on final riff.......
--------------------------------------------
--------------------------------------------
--------------------------------------------
--------------------------------------------
-5-5/7-5--4-4/7/4-3-3/7/3---------2-2-3-3--- 
--------------------------3--3-3------------







                                                
		   
AcordesyTabs.com © 2008 Acordes y Tablaturas para guitarra. Tabs and Chords for guitar. Aviso Legal - Contacto
El uso de este sitio está sujeto a la aceptación de los términos y condiciones (19 usuarios online)