tablaturas, partituras y acordes para guitarra
Busca por banda/artista:
 
y/o título de la canción:
A B C D E F G H I J K L M N O P Q R S T U V W X Y Z 0 1 2 3 4 5 6 7 8 9 / Top 100 tabs
Categorías
Usuarios
usuario:
Darse de alta
password:
Artistas más visitados
Publicidad
TOP acordes y tablaturas de Hagar sammy


High hopes
de Hagar sammy
Puntúa este acorde/tab:      
(0.5/5)
Reportar este acorde/tab
  Añadir a tus favoritos
  Imprimir

Date: Tue, 7 Nov 1995 15:17:41 -0500 (EST)
From: Michael Rees <mrees@msmary.edu>
Subject: Sammy Hagar / High_Hopes.tab



High Hopes
Sammy Hagar-Unboxed
tabbed by Mike Rees

tune down half step

/ or  -slide


intro

------------------
------------------
-3-5-3-0-0-3-3-0--
-3-5-3-0-0-3-3-0--
------------------
------------------

riff 1

-----------------
----------------- keep repeating this riff
-----------------
-----------------
35-5-5/35-5-5--
13-3-3/13-3-3--


riff 2
--------------------------------------------------
--------------------------------------------------
-------------------------3-5-3-0-0-3-3-0----------
-------------------------3-5-3-0-0-3-3-0----------
-35-5-5/35-5-5/35-5-5-----------------35-5-5--
-13-3-3/13-3-3/13-3-3-----------------13-3-3--


riff 3

--------------------------------------------------------------------------
--------------------------------------------------------------------------
----------------------------------------------------------3-5-3-0-0-3-3-0-
-7---7---------------10----10---------------------7---7---3-5-3-0-0-3-3-0-
-5-7-5-7--7-7-7-7-7---8-10--8-10--10-10-10-10-10--5-7-5-7-----------------
---5---5--5-5-5-5-5------8-----8---8--8--8--8--8----5---5-----------------

riff 3(con't)
------------------
------------------
-3-5-3-0-0-3-3-5--
-3-5-3-0-0-3-3-5--
------------------
------------------

riff 4

---------------
---------------   put this riff where ever it feels right
-5-5-3-0-------   
-5-5-3-0-------
---------------
---------------


Another Dream Goes Up In Smoke!
  

      enjoy, 
        -Mike




		   
AcordesyTabs.com © 2008 Acordes y Tablaturas para guitarra. Tabs and Chords for guitar. Aviso Legal - Contacto
El uso de este sitio está sujeto a la aceptación de los términos y condiciones (59 usuarios online)