tablaturas, partituras y acordes para guitarra
Busca por banda/artista:
 
y/o título de la canción:
A B C D E F G H I J K L M N O P Q R S T U V W X Y Z 0 1 2 3 4 5 6 7 8 9 / Top 100 tabs
Categorías
Usuarios
usuario:
Darse de alta
password:
Artistas más visitados
Publicidad
TOP acordes y tablaturas de Smashing Pumpkins


Mayonnaise
de Smashing Pumpkins
Puntúa este acorde/tab:      
(0.5/5)
Reportar este acorde/tab
  Añadir a tus favoritos
  Imprimir
Song: Mayonnaise
Artist: The Smashing Pumpkins
Album: Siamese Dream
Tabbed By: Joseph C. Oliver
Written By: Billy Corgan

Intro: (Billy Parts)
|----------------------------------------| (Riff One)
|----------------------------------------|
|---4-----------7-----9----4-------------|
|--4-4----5----7-7---9-9--4---5----------|
|-2-----5--5--7-----9----2---5-5---------|
|-----3---------------------3------------| < Repeat threw whole song.

Intro: (James Parts) Riff One
|--------0-0-----0-----------------------| (Riff Two)
|--------3-3-2-3-4-----------------------|
|-2-/-4----------------------------------|
|----------------------------------------|
|----------------------------------------|
|----------------------------------------|

Intro: (James Parts) Riff Two
|----------------------------------------| (Riff Three)
|----------------------------------------|
|-4---4--4-4-4-4--4-4--------------------|
|-4---4--4-4-4-4--4-4--4---4--4-4-4-4----|
|-2---2--2-2-2-2--2-2--4---4--4-4-4-4----|
|----------------------2---2--2-2-2-2----| Repeat a few times & starts after whe

Now the next part is full of power chords like what I just showed you on James s
P.S. 
~ = Quick Vibrato
^ = Pull Up
H = Hammer
S = slide
? = A part I don’t know (you wont find much of these)
()= Bend 

|-----------------------------------------------------| (Riff Four)
|-----------------------------------------------------|
|-4---4--4-4-4-4--4-4---------------------------------|
|-4---4--4-4-4-4--4-4--4---4--4-4-4-4-4--4-4----------|
|-2---2--2-2-2-2--2-2--4---4--4-4-4-4-4--4-4----------|
|----------------------2---2--2-2-2-2-2--2-2----------| Play this then slip down

|--------------------------------------| (Riff Five)
|--------------------------------------|
|--------------------------------------|
|-3---3--3-3-3-3-3-3--3-3--------------|
|-3---3--3-3-3-3-3-3--3-3--------------|
|-1---1--1-1-1-1-1-1--1-1--------------|

Guitar Solo:
|------------------------|
|------------------------|
|------------------------|
|-2--2--3--4--5--6--7----|
|------------------------|
|-0--0--1--2--3--4--5----| Play this once then go into riff four and play it dow
P.S. those small, short little screeching sounds after every riff is played like

|-13^--|
|-13^--|
|-13^--|
|------|
|------|
|------| The play again it only with a vibrato instead of a pull up. 

The ending is played like this by the riff one only it is played with the second

And that is it! I hope you have fun with it!
Thank You~!J
Joseph C. Oliver 







		   
AcordesyTabs.com © 2008 Acordes y Tablaturas para guitarra. Tabs and Chords for guitar. Aviso Legal - Contacto
El uso de este sitio está sujeto a la aceptación de los términos y condiciones (29 usuarios online)