tablaturas, partituras y acordes para guitarra
Busca por banda/artista:
 
y/o título de la canción:
A B C D E F G H I J K L M N O P Q R S T U V W X Y Z 0 1 2 3 4 5 6 7 8 9 / Top 100 tabs
Categorías
Usuarios
usuario:
Darse de alta
password:
Artistas más visitados
Publicidad
TOP acordes y tablaturas de Smashing Pumpkins


Rocket
de Smashing Pumpkins
Puntúa este acorde/tab:      
(0.4/5)
Reportar este acorde/tab
  Añadir a tus favoritos
  Imprimir
#----------------------------------PLEASE NOTE---------------------------------#
#This file is the author's own work and represents their interpretation of the #
#song. You may only use this file for private study, scholarship, or research. #
#------------------------------------------------------------------------------#
#

#----------------------------------PLEASE NOTE---------------------------------#
#This file is the author's own work and represents their interpretation of the #
#song. You may only use this file for private study, scholarship, or research. #
#------------------------------------------------------------------------------#
#
Date:        Wed, 31 Jan 1996 01:20:40 EST
From: G 
Subject: TAB:Rocket(Acoustic) by Smashing Pumpkins

Galen Myers
TAB:Smashing Pumpkins
Song:Rocket (Acoustic)
Found on Drown, Spaceboy, etc.

That Main Riff:
-----------------5------
-----3---53---3--------
-0-0---0-----0--------------
--------------------
------------------------
-----------------------

The riff is backed by:
--3--3-3--3-3--3-3--3----3----
--3--3-3--3-3--3-3--3----3-----
--0--0-0--0-0--0-0--0----0----
--0--0-0--0-0--0-0--0----0-----
--2--2-2--2-2--2-2--0/2--2-----
--3--3-3--3-3--3-3--3----3-----

The Bass Line:
------------------------------
-----------------------------
-----------------------------
-3--3-3--3-3--3-3--5/7--53---

Before the Chorus the two chords are:
------------
-----------
-5---5----
-2---5-----
-0---3-----
-----------

Behind the GDFC part of the chorus:
----------------------------------------------
----------------10----------13-------------8-----
-0-0-0-0-----11----11----14----14------9----9---
----------12----------15------------10---10----------
--------------------------------------------
------------------------------------------------
Those leads are the same after the chorus:
e----------------------
B-68-8-8--68-8-8--68-8-8--
G---------------------------4

e---------------------------57-7br
B-68-8-8--68-8-8--68-8-8--------
G---------------------------------
repeat both

Then the bridge (consume my love...):
C and G

Then the soon I find myself alone part:
D A C G

Then the outro:
e-----------------------------------------------------
B-8-8---12--8-8---12--1312-12---8-8---12--12---1512-12--1312--1312---
G-0---0------0---0-----------------0---0---------0-0-----0--------0---------

The building at the end is taking an open G chord and escalating it up
the neck one fret at a time up to the octave.


From: cecarman@miavx1.acs.muohio.edu
Date: 11 Feb 94 04:27:57 -0500

rocket -- by Smashing Pumpkins
------
transcribed by Chris Carman (cecarman@miavx1.acs.muohio.edu)

Okay, after the nearly-seven-minute-long Hummer, the chops deserve a
little break, and that's what this tune, Rocket, provides us with.  The
most interesting and exciting thing about this song is the prominent the
of the Boss Octave pedal in combination with the slide/bend guitar.  To
acheive this effect, you need to turn down the direct level on the Octave
pedal, and turn up both the 1 Octave Down and 2 Octave Down knobs.  This
creates a very thick pseudo-synth guitar sound that make this song what it
is.  Anyways, here we go:

Some little tremolo guitar floats through in the second bar after the intro:

----- 
--7-- 
--7--  or something like that, just turn up the tremolo knob on your amp ;)
----- 
--5-- 
----- 

Bleed in your own light dream of your own life
I miss me I miss everything

right before the chorus play these two chords (or something similar):

----------------------------------
----------------------------------
--5-5--5-5-5----------------------
--2-2--5-5-5--etc-----------------
--0-0--3-3-3----------------------
----------------------------------
  everything...   I'll never be
G  D  F  C           G   D   F   C
          and on and on...     
           G       D                   F         C              
I torch my soul to show the world that I am pure deep inside my
G    D      F    C
heart....heart      no lie...(??)

the lead line over the chorus is as follows:
------------------------------------------
-----------------10--------13------10p8---  repeat this
---0--0--0-----11--11----14--14---9----9--  4x
------------/12-------/15-------10--------
------------------------------------------
------------------------------------------

now here's the beginning of that interesting octave pedal work.  This
part does not use a slide, but make the B string bends very fast.
Repeat this entire line 2x with the main riff underneath.

with octave pedal
------------------------------------------------------------------5h7-7b8b7--
-6-8-8b10b8--6-8-8b10b8--6-8-8b10b8---6-8-8b10b8--6-8-8b10b8--6h8------------
------------------------------------4----------------------------------------
-----------------------------------------------------------------------------
-----------------------------------------------------------------------------
-----------------------------------------------------------------------------

Now under the 2nd verse, along with the main riff, play this part.  Turn the
direct volume all the way down and turn Octave  & Octave 2 all the way up,
and break out the slide.  If you don't have an octave pedal or a slide, play
the bottom notes in the brackets -- that's the equivalent, only not synth. 
Another way to play it is to do bends, which is tough, but effective.

A crown of thorns, an image formed, deformed
The mark I've borne, a mark of scorn.. to you

---1210--7/10--------------------------75----87---7/10----
----------------10/12--108------108------------------------
---[97]-[4/7]-----------------------------------------------
----------------[7/9]--[75]-----[75]-[97]-[109]-[9/12]---
---[75]-[2/5]-----------------------------------------------
----------------[5/7]--[53]-----[53]-[75]--[87]-[7/10]---

Now play these chords over the lyrics with the following lead:

C                                             G
Consume my love devour my hate only powers my escape
C                                                   D
The moon is out the stars invite I think I'll leave tonite

use slow bends:          fast bends:

---8b10-----------12b15---10b12-10-10--8-10-10b12b10-10--8-10-10b12b10-10-
----------9b10p8----------------------------------------------------------
--[5/7]-----------[9/12]--------------------------------------------------
---------[6b75]----------------------------------------------------------
--[3/5]-----------[7/10]--------------------------------------------------
---------[4b53]----------------------------------------------------------

---8-10-10b12b10--8-10-10b12b10--10------
-----------------------------------------
-----------------------------------------
-----------------------------------------
-----------------------------------------
-----------------------------------------

D    A C           G                    vib
--------------------------------------------
-------------------------12b13b12b13b12/15--
-------------------------[4/-5-4/-5-4/7]--
--------------------------------------------
-------------------------[2/-3-2/-3-2/5]--
--------------------------------------------
Soon I find myself alone

D A  C             G
----------------------15h17-15h17-15---
---------------------------------------
---------------------[12/14-12/14-12]--
---------------------------------------
---------------------[10/12-10/12-10]--
---------------------------------------
To relax and fade away

D  A   C                  G
----------1715---------------------
-----17---------------------1715---
-----[9]-[1412]------------[97]---
------------------------------------
-----[7]-[1210]------------[75]---
------------------------------------
Do you know what's coming down

   D   A   C
-------------------------------------
---15--17--12---13---12---13---12----
---[7]-[9]---------------------------
-----------[9]-[10]--[9]-[10]--[9]---
---[5]-[7]---------------------------
-----------[7]--[8]--[7]--[8]--[7]---
   Do  you know  I   couldn't  stay.. 

G    D     F  C
-------1715-----
-----------------
------[1412]----
-----------------
------[1210]----
-----------------
free?

            G           D           F           C
---------------------------------------------------------
-----------15-13-12-13-12----12--------------------------
--------------------------14----14-12-14-14-14-------12--
-----------------------------------------------12-14-----
---------------------------------------------------------
---------------------------------------------------------
I shall be free

           G            D            F           C
----------15-14--------15-14------------------------------
----------------15-----------15-----15-13-12-13-12--------
-------------------14-----------14-----------------12-12--
----------------------------------------------------------
----------------------------------------------------------
----------------------------------------------------------
I shall be free          I shall be free                I shall be

   G           D             F                       C 
----------------------------22-20-19-20-19----19------------
--15-13-12-13-12----12---------------------22----22--19b20--
-----------------14----14-----------------------------------
------------------------------------------------------------
------------------------------------------------------------
------------------------------------------------------------
  free        free         freed of those voices inside me

break and play this super fuzzed-out riff twice alone, and repeat it through
the end of the song before the climbing G chord:
           vib               vib
--------------------------------------------------------------------
------8h12-12----------13p12-12----8h12-12---15p12---13p12---13p12--
---0-----------0--0-0------------0-----------------0-------0--------
--------------------------------------------------------------------
--------------------------------------------------------------------
--------------------------------------------------------------------

Go into the "I shall be free" chorus and repeat 6x, slowing on the last two
times.  Also play the octave-bending riff, plus this one right before the
climb:
                                                f.h.     slow 
---------------8-7-----------------8--7---------7b8------------------xxx--
----10(12)b10------8---10(12)b10--------10-10-------10-8-7b8---------xxx--
---------------------------------------------------------------------xxx--
---------------------------------------------------------------------xxx--
---------------------------------------------------------------------xxx--
---------------------------------------------------------------(7)--xxx--

16th note strumming, neat progression:

---3--4--5--6--7--8--9--10--11--12--13--14--15------------
---3--4--5--6--7--8--9--10--11--12--13--14--15------------
---0--0--0--0--0--0--0---0---0---0---0---0---0---0---0----
---0--0--0--0--0--0--0---0---0---0---0---0---0---0---0----
---2--3--4--5--6--7--8---9--10--11--12--13--14--14--14---
---3--4--5--6--7--8--9--10--11--12--13--14--15--15--15---

-cecarman@miavx1.acs.muohio.edu
---eof---



Date: Mon, 31 Jul 1995 22:55:15 -0400 (EDT)
From: Chris Bahnuk 
Subject: TAB:  Rocket by Smashing Pumpkins


Date:        Thu, 08 Feb 1996 13:29:40 EST
From: G 
Subject: TAB:rocket(acoustic) by Smashing Pumpkins

Galen Myers
gmyers@music.transy.edu
TAB:Smashing Pumpkins
Song:Rocket (Acoustic)
Found on Drown, Spaceboy, etc.

That Main Riff:
-----------------5------
-----3---53---3--------
-0-0---0-----0--------------
--------------------
------------------------
-----------------------

The riff is backed by:
--3--3-3--3-3--3-3--3----3----
--3--3-3--3-3--3-3--3----3-----
--0--0-0--0-0--0-0--0----0----
--0--0-0--0-0--0-0--0----0-----
--2--2-2--2-2--2-2--0/2--2-----
--3--3-3--3-3--3-3--3----3-----

The Bass Line:
------------------------------
-----------------------------
-----------------------------
-3--3-3--3-3--3-3--5/7--53---

Before the Chorus the two chords are:
------------
-----------
-5---5----
-2---5-----
-0---3-----
-----------

Behind the GDFC part of the chorus:
----------------------------------------------
----------------10----------13-------------8-----
-0-0-0-0-----11----11----14----14------9----9---
----------12----------15------------10---10----------
--------------------------------------------
------------------------------------------------
Those leads are the same after the chorus:
e----------------------
B-68-8-8--68-8-8--68-8-8--
G---------------------------4

e---------------------------57-7br
B-68-8-8--68-8-8--68-8-8--------
G---------------------------------
repeat both

Then the bridge (consume my love...):
C and G

Then the soon I find myself alone part:
D A C G

Then the outro:
e-----------------------------------------------------
B-8-8---12--8-8---12--1312-12---8-8---12--12---1512-12--1312--1312---
G-0---0------0---0-----------------0---0---------0-0-----0--------0---------

The building at the end is taking an open G chord and escalating it up
the neck one fret at a time up to the octave.

		   
AcordesyTabs.com © 2008 Acordes y Tablaturas para guitarra. Tabs and Chords for guitar. Aviso Legal - Contacto
El uso de este sitio está sujeto a la aceptación de los términos y condiciones (19 usuarios online)