tablaturas, partituras y acordes para guitarra
Busca por banda/artista:
 
y/o título de la canción:
A B C D E F G H I J K L M N O P Q R S T U V W X Y Z 0 1 2 3 4 5 6 7 8 9 / Top 100 tabs
Categorías
Usuarios
usuario:
Darse de alta
password:
Artistas más visitados
Publicidad
TOP acordes y tablaturas de Zen


Estás en: Inicio > Letra Z > Acordes y tablaturas de Zen > Guardas Algo
Guardas Algo
de Zen
Puntúa este acorde/tab:      
(0.7/5)
Reportar este acorde/tab
  Añadir a tus favoritos
  Imprimir

Hola a todos, aki les va una súper canción , de unos de los
mejores grupos de Perú, (Zen), la cual se la dedico
a la niña de mis ojos mas conocida como la puneñita...
y recuerden “la vida es mejor si das amor sin medida”


Intro:
e|---8--7---7-----7---5---5-|---8--7---7-----7---5---5--
B|---------------------—----|---------------------------
G|-5--5---5-----5--5---5----|-5--5---5-----5--5----5----
D|--------------------------|---------------------------
A|--------------------------|---------------------------
E|--------------------------|---------------------------

C
Ya no puedo leer tus ojos
Am
No logro encontrarte en ellas
        F
Se que tú…. guardas algo
        F             G           C
Se que tú…. tienes algo…    para mí


e|---8--7---7-----7---5---5-|---8--7---7-----7---5---5--
B|---------------------—----|---------------------------
G|-5--5---5-----5--5---5----|-5--5---5-----5--5----5----
D|--------------------------|---------------------------
A|--------------------------|---------------------------
E|--------------------------|---------------------------

e|---5----------------------------|---5-----------------------
B|--------8---8---8---6---6—------|--------8---8---8---6---6—-
G|-5---5----5---5---5---5---------|-5---5----5---5---5---5----
D|--------------------------------|---------------------------
A|--------------------------------|---------------------------
E|--------------------------------|---------------------------


C
Tu silencio me hiere tanto
Am
Esta angustia me esta acabando
        F
Se que tú…. guardas algo
        F             G
Se que tú…. tienes algo

       C
Dime quien me alejo de ti
       Am
Dime quien se burlo de mí
       F
Dime quien me ha robado todo
       F                  G          C
Dime quien se ha llevado todo... de mí

e|---8--7---7-----7---5---5-|
B|---------------------—----|
G|-5--5---5-----5--5---5----|
D|--------------------------|
A|--------------------------|
E|--------------------------|


C
Ya no quiero buscar respuestas
Am
Ya no puedo vivir soñando
        F
Se que ya… no hay nada
        F               G        C
Se que ya…. no queda nada… para mi


*Solo* + notas para acompañar el solo (C – Am – F – G)

E|-----------------------------------
B|--<17>17-15-17--<17>17-15-13-------
G|-----------------------------------
D|-----------------------------------
A|-----------------------------------
E|-----------------------------------

---------------------------------------------------------------------
--<15>15-15-15/17-18-15/17-15---13-15-<15-15>-13-15------------------
---------------------------------------------------------------------
-----------------------------------------------------------<<<9>>>---
---------------------------------------------------------------------
---------------------------------------------------------------------



      C
Dime quien me alejo de ti
       Am
Dime quien se burlo de mí
       F
Dime quien me ha robado todo
       F                  G
Dime quien se ha llevado todo…


       C
Dime quien me alejo de ti
       Am
Dime quien se burlo de mí
       F
Dime quien me ha robado todo
       F                  G        C
Dime quien se ha llevado todo… de mí…



¡Viva el rock peruano!... y tu mamá también!!  = P
Cualquier sugerencia escríbanme a: edu_007_178@hotmail.com
Saludos para la people  de huascaran.. y para la julio la jorge ,
 la Giovanni y la guiseppe ¡ valor !  jaja X P
		   
AcordesyTabs.com © 2008 Acordes y Tablaturas para guitarra. Tabs and Chords for guitar. Aviso Legal - Contacto
El uso de este sitio está sujeto a la aceptación de los términos y condiciones (53 usuarios online)