tablaturas, partituras y acordes para guitarra
Busca por banda/artista:
 
y/o título de la canción:
A B C D E F G H I J K L M N O P Q R S T U V W X Y Z 0 1 2 3 4 5 6 7 8 9 / Top 100 tabs
Categorías
Usuarios
usuario:
Darse de alta
password:
Artistas más visitados
Publicidad
TOP acordes y tablaturas de Static X


Push It
de Static X
Puntúa este acorde/tab:      
(0.2/5)
Reportar este acorde/tab
  Añadir a tus favoritos
  Imprimir
Song: Push it
Artist: Static-X
Album: Wisconsin Death Trip
Tabbed by: Brad McGarrah (brad286@juno.com)

Intro (8x) :

------------------------------
------------------------------
---8---------8---------------
------------------------------
------------------------------
-------0------------0--------


Before Verse (7x) :

-----------------------------------------------     ----------------------------
-----------------------------------------------    -----------------------------
-----------------------------------------------    ---8----------8--------------
---0---5----3----0---0---5---3-------------     ------------------------------
---0---5----3----0---0---5---3-------------     ------------------------------
---0---5----3----0---0---5---3-------------     --------0------------0-------

Use this riff for the verse and chorus.


Play this after 2nd chorus (2x) :

--------------------------------------------------------------------------------
--------------------------------------------------------------------------------
--------------------------------------------------------------------------------
--3----1------------0----5----3----0----0----5----3--------------0-----5----3---
--3----1------------0----5----3----0----0----5----3--------------0-----5----3---
--3----1------------0----5----3----0----0----5----3--------------0-----5----3---

After this go back to the riff for the chorus and you can figure out how many ti
play it till the end of the song.

If you have any corrections on anything email me.
		   
AcordesyTabs.com © 2008 Acordes y Tablaturas para guitarra. Tabs and Chords for guitar. Aviso Legal - Contacto
El uso de este sitio está sujeto a la aceptación de los términos y condiciones (26 usuarios online)