tablaturas, partituras y acordes para guitarra
Busca por banda/artista:
 
y/o título de la canción:
A B C D E F G H I J K L M N O P Q R S T U V W X Y Z 0 1 2 3 4 5 6 7 8 9 / Top 100 tabs
Categorías
Usuarios
usuario:
Darse de alta
password:
Artistas más visitados
Publicidad
TOP acordes y tablaturas de Misc


Cool
de Misc
Puntúa este acorde/tab:      
(0.2/5)
Reportar este acorde/tab
  Añadir a tus favoritos
  Imprimir


Author/Artist: ?
Title: Not sure but great song.
Album: ?
Transcribed by: Beau B.
---------0--------------------------------------------------------------------
-----------0----------1----------3--------------------------------------------
-------0-----0----------0----------0------------------------------------------
-----2---------2----------2----------4----------------------------------------
---2----------------3----------5----------------------------------------------
-0----------------------------------------------------------------------------
                                                                              

---------0-------------------------------------------------------------2------
-----------0----------1----------3----------1----------1-------------1--------
-------0-----0----------0----------0----------0----------0---------2----------
-----2---------2----------2----------4----------2----------0------0-----------
---2----------------3----------5----------3----------2----------2-------------
-0----------------------------------------------------------------------------
     Then Repeat All Again.  It Makes A Good Excercise Too.                   



		   
AcordesyTabs.com © 2008 Acordes y Tablaturas para guitarra. Tabs and Chords for guitar. Aviso Legal - Contacto
El uso de este sitio está sujeto a la aceptación de los términos y condiciones (19 usuarios online)