tablaturas, partituras y acordes para guitarra
Busca por banda/artista:
 
y/o título de la canción:
A B C D E F G H I J K L M N O P Q R S T U V W X Y Z 0 1 2 3 4 5 6 7 8 9 / Top 100 tabs
Categorías
Usuarios
usuario:
Darse de alta
password:
Artistas más visitados
Publicidad
TOP acordes y tablaturas de Stereophonics


Help Me
de Stereophonics
Puntúa este acorde/tab:      
(0.2/5)
Reportar este acorde/tab
  Añadir a tus favoritos
  Imprimir
Most of it is here, present and correct as Kelly plays it! 

Stereophonics 
Help Me(She’s Out Of Her Mind) 
You Gotta Go There To Come Back 
Tabbed By mel chaytor

Despite being nearly seven minutes long, this is a very simple song to play. Onc

Apart from that theres a lot of wah wah soloing going on, this would take far to

Theres also a few variations of the main riff in the song, when he sings ‘she’ll

Intro/verse riff 

This is the way Kelly plays the song live. 

A7 D7 
-----------------------------------------------------------------| 
-----------------------------------------------------------------| 
----------------------------------------------5-5--X-X-5-5--X-5--| 
-------------------X-X-5-5--X-5--5--X-5-5-X-X-4-4--X-X-4-4--X-4--| 
-------3-----------X-X-4-4--X-4--4--X-4-4-X-X-5-5--X-X-5-5--X-5--| 
-0-3-5---5-3p0-3s5-X-X-5-5--X-5--5--X-5-5-X-X--------------------| 

Chorus 

The first guitar is playing the chords. From what I could make out watching Kell

A7 G#? G5 F6? 
|-----------------------------------------------------------| 
G-----------------------------------------------------------| 
T-----------------------------------------------------------| 
R-5-5--5----------------------------------------------------| 
1-4-4--4---5-5--5---5-5---------3-------5--5--------3-------| 
|-5-5--5---4-4--4---3-3---0-3-5---5-3p0-2--2--0-3-5---5-3p0-| 
| | 
|-----------------------------------------------------------| 
G-----------------------------------------------------------| 
T-----------------------------------------------------------| 
R-----------------------------------------------------------| 
2-------------------------------3-------------------3-------| 
|-5~~~~~~--4~~~~~~--3~~~~-0-3-5---5-3p0-2~~~--0-3-5---5-3p0-| 

Clavinet Break 

Here’s the tab to play that funky clavinet riff. Somrthing like this, it sounds 
A D 
|----------------------------------------------------| 
G----------------------------------------------------| 
T----------------------------------------------------| 
R---7-----7--------7---5-7---7-----7-------7---5---7-| 
1--------------------------5---5-5---5---5---5---5---| 
|-5---5-5----5---5---5-------------------------------|                          
james simpson (slimson) is a fat twat
		   
AcordesyTabs.com © 2008 Acordes y Tablaturas para guitarra. Tabs and Chords for guitar. Aviso Legal - Contacto
El uso de este sitio está sujeto a la aceptación de los términos y condiciones (34 usuarios online)