tablaturas, partituras y acordes para guitarra
Busca por banda/artista:
 
y/o título de la canción:
A B C D E F G H I J K L M N O P Q R S T U V W X Y Z 0 1 2 3 4 5 6 7 8 9 / Top 100 tabs
Categorías
Usuarios
usuario:
Darse de alta
password:
Artistas más visitados
Publicidad
TOP acordes y tablaturas de Stereophonics


Estás en: Inicio > Letra S > Acordes y tablaturas de Stereophonics > High As The Ceiling 1
High As The Ceiling 1
de Stereophonics
Puntúa este acorde/tab:      
(0.1/5)
Reportar este acorde/tab
  Añadir a tus favoritos
  Imprimir
High as the Ceiling
"You gotta go there to come back" - Stereophonics

Tabbed By Jonothan Campbell


I been lookign for a tab for this song for ages, but no1's managed to cough up y

here it goes


Standard Tuning : EADGBe


Intro : some sort of crazy effects pedal thingy but then the main riff begins on


come and get up high.........
e ------------------------------------------------------------------------------
B ------------------------------------------------------------------------------
G ------------------------------------------------------------------------------
D ------------------------------------------------------------------------------
A --5-3-----------------------------5-3-----------------------------------------
E -------5-4-3~~~~~--0h3h4-5-3h5-----------5-4-3~~~~~--0h3h4-5-3h5--------------


Find my way.....
e ------------------------------------------------------------------------------
B ------------------------------------------------------------------------------
G ----------------7-xx--5------------------------7-xx--5----------------------7-
D -------------x--7-xx--5--7------------------x--7-xx--5---7---------------x--7-
A -------------x--5-xx--3--7------------------x--5-xx--3---7---------------x--5-
E -----0h3h4 5-x-----------5----------0h3h4 5-x------------5-------0h3h4 5-x----


and the end of the 4th time you play the little riff, play this:

e ------------------------------------------------------------------------------
B ------------------------------------------------------------------------------
G -------7777777-----5555555--------------------------5~--------------5~--------
D ----5--7777777-----5555555-----------------7-xx-77--5~-----7-xx-77--5~-----7--
A ----5--5555555-----3333333----------5------7-xx-77--3~-----7-xx-77--3~-----7-x
E ----3------------------------0h3h5-----5p3h5-xx-55---------5-xx-55---------5-x


e ------------------------------------------------------------------------------
B ------------------------------------------------------------------------------
G ------------------------------------------------------------------------------
D ------------------------------------------------------------------------------
A --5-3-----------------------------5-3-----------------------------------------
E -------5-4-3~~~~~--0h3h4-5-3h5-----------5-4-3~~~~~--0h3h4-5-3h5--------------


e ------------------------------------------------------------------------------
B ------------------------------------------------------------------------------
G ----------------7-xx--5------------------------7-xx--5----------------------7-
D -------------x--7-xx--5--7------------------x--7-xx--5---7---------------x--7-
A -------------x--5-xx--3--7------------------x--5-xx--3---7---------------x--5-
E -----0h3h4 5-x-----------5----------0h3h4 5-x------------5-------0h3h4 5-x----


e ------------------------------------------------------------------------------
B ------------------------------------------------------------------------------
G -------7777777-----5555555--------------------------5~--------------5~--------
D ----5--7777777-----5555555-----------------7-xx-77--5~-----7-xx-77--5~-----7--
A ----5--5555555-----3333333----------5------7-xx-77--3~-----7-xx-77--3~-----7-x
E ----3------------------------0h3h5-----5p3h5-xx-55---------5-xx-55---------5-x


after this bit, there is the solo part, which i do not know, anyone figure it ou

after the solo, carry on with :

e ------------------------------------------------------------------------------
B ------------------------------------------------------------------------------
G ------------------------------------------------------------------------------
D ------------------------------------------------------------------------------
A --5-3-----------------------------5-3-----------------------------------------
E -------5-4-3~~~~~--0h3h4-5-3h5-----------5-4-3~~~~~--0h3h4-5-3h5--------------


e ------------------------------------------------------------------------------
B ------------------------------------------------------------------------------
G ----------------7-xx--5------------------------7-xx--5----------------------7-
D -------------x--7-xx--5--7------------------x--7-xx--5---7---------------x--7-
A -------------x--5-xx--3--7------------------x--5-xx--3---7---------------x--5-
E -----0h3h4 5-x-----------5----------0h3h4 5-x------------5-------0h3h4 5-x----


e ------------------------------------------------------------------------------
B ------------------------------------------------------------------------------
G -------7777777-----5555555--------------------------5~--------------5~--------
D ----5--7777777-----5555555-----------------7-xx-77--5~-----7-xx-77--5~-----7--
A ----5--5555555-----3333333----------5------7-xx-77--3~-----7-xx-77--3~-----7-x
E ----3------------------------0h3h5-----5p3h5-xx-55---------5-xx-55---------5-x


 the end bit the the soloing goin on
e -------------------------------------------------------------------------
B -------------------------------------------------------------------------
G ----------------5~--------------5~--------------5~---------------5~------
D -------7-xx-77--5~-----7-xx-77--5~-----7----77--5~------7-xx-77--5~------
A -------7-xx-77--3~-----7-xx-77--3~-----7-xx-77--3~------7-xx-77--3~------
E -------5-xx-55---------5-xx-55---------5-xx-55----------5-xx-55----------

e ---------------------------
B ---------------------------
G ---------------------------
D ---------------------------
A --5-3----------------------
E -------5-4-3~~~~~~~~~~~~~~~


e ------------------------------------------------------------------------------
B ------------------------------------------------------------------------------
G ------------------------------------------------------------------------------
D ------------------------------------------------------------------------------
A --5-3-----------------------------5-3-----------------------------------------
E -------5-4-3~~~~~--0h3h4-5-3h5-----------5-4-3~~~~~--0h3h4-5-3h5--------------

e ------------------------------------------------------------------------------
B ------------------------------------------------------------------------------
G ------------------------------------------------------------------------------
D ------------------------------------------------------------------------------
A --5-3-----------------------------5-3-----------------------------------------
E -------5-4-3~~~~~--0h3h4-5-3h5-----------5-4-3~~~~~--0h3h4-5-3h5------0h3h4-5-





Any comments, mail me at vsx74hotmail.com. cheers. hope u find the tab useful!

		   
AcordesyTabs.com © 2008 Acordes y Tablaturas para guitarra. Tabs and Chords for guitar. Aviso Legal - Contacto
El uso de este sitio está sujeto a la aceptación de los términos y condiciones (40 usuarios online)