tablaturas, partituras y acordes para guitarra
Busca por banda/artista:
 
y/o título de la canción:
A B C D E F G H I J K L M N O P Q R S T U V W X Y Z 0 1 2 3 4 5 6 7 8 9 / Top 100 tabs
Categorías
Usuarios
usuario:
Darse de alta
password:
Artistas más visitados
Publicidad
TOP acordes y tablaturas de Stereophonics


Estás en: Inicio > Letra S > Acordes y tablaturas de Stereophonics > Lying In The Sun
Lying In The Sun
de Stereophonics
Puntúa este acorde/tab:      
(0.2/5)
Reportar este acorde/tab
  Añadir a tus favoritos
  Imprimir
Lying in the Sun
Stereophonics
Just Enough Education to Perform

capo 4th fret
tab written as if 4th fret is played 'open' 0. 6th fret is '2'

Intro:

e:-------2-------------2-----/-------2-------------2-----/-------2-------------2
b:----0----0--------3---3---/----0----0--------3---3--/----0----0--------3---3--
g:--2-------------4----------/--2-------------4----------/--2-------------4-----
d:--0------------------------/--0------------------------/---0------------------
a:-----------------------------/----------------------------/-------------------
e:-----------------------------/----------------------------/-------------------

Verse 1:

e:-------2-------------2-----/-------2-------------2-----/-------2-------------2
b:----0----0--------3---3---/----0----0--------3---3--/----0----0--------3---3--
g:--2-------------4----------/--2-------------4----------/--2-------------4-----
d:--0------------------------/--0------------------------/---0------------------
a:-----------------------------/----------------------------/-------------------
e:-----------------------------/----------------------------/-------------------

Wish that I....

e:-------0-------------0-----/-------0-------------0-----/-------0-------------0
b:----0----0--------3---3---/----0----0--------3---3--/----0----0--------3---3--
g:--2-------------4----------/--2-------------4----------/--2-------------4-----
d:--0------------------------/--0------------------------/---0------------------
a:-----------------------------/----------------------------/-------------------
e:-----------------------------/----------------------------/-------------------

Wish that I....

e:-------2-------------2-----/-------2-------------2-----/
b:----0----0--------3---3---/----0----0--------3---3--/
g:--2-------------4----------/--2-------------4----------/
d:--0------------------------/--0-------------------------/
a:-----------------------------/----------------------------/
e:-----------------------------/----------------------------/

air...                                                                         


Verse 2:

same as verse 1
I'd have a drink...

Prechorus:

e:---0---0---0---0----0--0----/---0---0---0---0----0--0-------------------------
b:---2---2---2---3----3--3----/---2---2---2---3----3--3-------------------------
g:---0---0---0---0----0--0----/---0---0---0---0----0--0-------------------------
d:---2---2---2---2----2--2----/---2---2---2---2----2--2-------------------------
a:---0---0---0---0----0--0----/---0---0---0---0----0--0-----------------------
e:--------------------------------/----------------------------------

Same things as anyone                Same things as anyone

Chorus:

    /G6                     /G6                          /D                 / A7

    But you burn me up...    In bad designs....      oven in.....

Verse 3: 
My skin.....


Verse 4:
There's always....


Prechorus:   /A7  A7sus4 / A7  A7sus4/


Chorus: (same)


Verse 5:
instrumental followed by /A7   A7sus4 / A7  A7sus4/

Verse 6:
Here I am.....  followed by  /A7   A7sus4 / A7  A7sus4/

Chorus again and fade out

By Craig McKibbin
(and my t-shirt writes 'I love airplane noise')


		   
AcordesyTabs.com © 2008 Acordes y Tablaturas para guitarra. Tabs and Chords for guitar. Aviso Legal - Contacto
El uso de este sitio está sujeto a la aceptación de los términos y condiciones (34 usuarios online)