tablaturas, partituras y acordes para guitarra
Busca por banda/artista:
 
y/o título de la canción:
A B C D E F G H I J K L M N O P Q R S T U V W X Y Z 0 1 2 3 4 5 6 7 8 9 / Top 100 tabs
Categorías
Usuarios
usuario:
Darse de alta
password:
Artistas más visitados
Publicidad
TOP acordes y tablaturas de Sting


Estás en: Inicio > Letra S > Acordes y tablaturas de Sting > Every Breath You Take
Every Breath You Take
de Sting
Puntúa este acorde/tab:      
(0.3/5)
Reportar este acorde/tab
  Añadir a tus favoritos
  Imprimir
Every Breath You Take - The Police 

Verse 1 [only picking]
G
Every breath you take 
Em 
Every move you make 
C 
Every bond you break 
D 
Every step you take  
Em 
I'll be watching you 

Verse 2 
G 
Every single day 
Em 
And every word you say 
C 
Every game you play 
D 
Every night you stay 
G 
I'll be watching you 

Chorus [sort of]
C G 
Oh can't you see, you belong to me 
Em D 
My poor heart aches, with every breath you take 

Verse 3 
G 
And every move you make 
Em 
And every vow you break 
C 
Every smile you fake 
D 
Every claim you stake 
Em 
I'll be watching you 

Chorus again [sort of]
C G 
Oh can't you see, you belong to me 
Em D 
My poor heart aches, with every breath you take

Bridge [strum here]
Eb F 
Since you've being gone I've being lost without a trace 
Eb 
All through the night I can only see your face 
F 
I look around but it's you I can't replace 
Eb 
I feel so cold and I long for your embrace 
G [start picking again]
I keep cryin’, baby, baby please 

Verse 4 [same as verse 3]
G9 
And every move you make 
Em9 
And every vow you break 
C9 
Every smile you fake 
D9 
Every claim you stake 
Em9 
I'll be watching you 

Here is the tab. Wherever it says G play the tab for G (below) etc...
Don’t pick at the bridge on Eb and F, just strum along then back to picking.
Tab:
  G                    Em                   C                
e|--------------------|--------------------|-----------------
B|--------------------|--------------------|-----------------
G|-----4--------4-----|-----0--------0-----|--------9--------
D|---5--5-5---5---5-5-|---2--2-2---2---2-2-|----10----10--10-
A|--5-5--5---5-5---5--|--2-2--2---2-2---2--|--10--10----10---
E|-3--------3---------|-0--------0---------|-8---------------
  D                  G
E|------------------|--------------------|-
B|------------------|--------------------|-
G|---------11-------|-----4--------4-----|-
D|-----12----12--12-|---5--5-5---5---5-5-|-
A|---12--12----12---|--5-5--5---5-5---5--|-
E|-10---------------|-3--------3---------|-

Enjoy! Questions, comments and the like... freddiefraggles@yahoo.com
		   
AcordesyTabs.com © 2008 Acordes y Tablaturas para guitarra. Tabs and Chords for guitar. Aviso Legal - Contacto
El uso de este sitio está sujeto a la aceptación de los términos y condiciones (28 usuarios online)